Chordproc: Misc : Country

Misc : Country


  1. Illegal Smile (John Prine)
  2. She (Gram Parsons)
  3. So Lonesome I Could Cry (Hank Williams)
  4. Jolene
  5. Deep River Blues
  6. Passionate Kisses (Lucinda Williams)
  7. Ramblin' Man (Hank Williams)

Illegal Smile (John Prine)


Intro: C

     
C
              
G
        
F
                   
C

When I woke up this morning, things were lookin' bad
F
               
C
               
G7
            
C

Seem like total silence was the only friend I had
G
               
F
                 
C
       
F
   
C

Bowl of oatmeal tried to stare me down... and won
           
G
                       
F

And it was twelve o'clock before I realized
           
C
         
F
  
C

That I was havin' .. no fun


        
G
             
C
               
F
      
G7
  
C

    But fortunately I have the key to escape reality
                
F
                      
C

    And you may see me tonight with an illegal smile
             
G7
                     
C

    It don't cost very much, but it lasts a long while
              
F
                            
C

    Won't you please tell the man I didn't kill anyone
           
G
              
F
            
C
   
F
 
C
 
F
 
C
 
F
 
C

    No I'm just tryin' to have me some fun


Last time I checked my bankroll, it was gettin' thin
Sometimes it seems like the bottom is the only place I've been
I chased a rainbow down a one-way street... dead end
And all my friends turned out to be insurance salesmen

    [Repeat Chorus]

Well, I sat down in my closet with all my overalls
Tryin' to get away from all the ears inside my walls
I dreamed the police heard everything I thought... what then?
Well I went to court and the judge's name was Hoffman


    Ah but fortunately I have the key to escape reality
    And you may see me tonight with an illegal smile
    It don't cost very much, but it lasts a long while
    Won't you please tell the man I didn't kill anyone
    No I'm just tryin' to have me some fun
    Well done, hot dog bun, my sister's a nun



She (Gram Parsons)


C
    
E7

She  she  came from the land of the cotton
Am
            
C7
                 
F
     
C
  
G

Land that was nearly forgotten by everyone
C
   
E7

And She worked and she slaved so hard
Am
                      
C7
              
F
    
C

A big old field was her back yard in the delta sun
Bb
 
F
                   
C

Oh, but she sure could sing
Bb
 
F
             
C
   
G

Oh, she sure could sing

C
      
E7

Then He looked down and he took a little pity
Am
             
C7
                    
F
          
C
  
G

The whole town swore he decided he'd help her some
C
     
E7

And he didn't mind if she wasn't very pretty
Am
                  
C7
                        
F
    
C

For deep inside his heart he knew she was the only one
Bb
 
F
                  
C

Oh but she  sure could sing
Bb
 
F
              
C

Yea she sure  could sing


    
G

    She had faith, she had believing
       
C

    She led all the people together in singing
    
G

    And she prayed every night to the lord up above
    
F
  
G
  
Dm
 
G
     
Dm/c
    
G

    Hallelujah  oh hallelujah


They use to walk singing songs by the river
Even when she knew for sure
She had to go away
And she  never knew what her life had to give her
And never had to worry about it
For one single day
My but she sure could sing
Oh yes sure could sing

She had faith, she had believing
Led all the people together in singing
And she prayed every night to the lord up above
Hallelujah  oh hallelujah

She  she  came from the land of the cotton
Land that was nearly forgotten by everyone
And She worked and she slaved so hard
A big old field was her back yard in the delta sun
Oh, but she sure could sing
My, she sure could sing
Oh, but she sure could sing
Oh, but she sure could sing



So Lonesome I Could Cry (Hank Williams)


As played by Seasick Steve and Amy LaVere in 2008.

Tuning: DADF#AD (Open D)


D

Hear that lonesome whipoorwill
He sounds too blue to fly
The midnight train is whining low
I'm so lonesome I could cry

I've never seen a night so long
When time goes crawling by
The moon just went behind a cloud
To hide hide its face and cry

Did you ever see a robin weep
When leaves begin to die?
That means he's lost the will to live
I'm so lonesome I could cry

The silence of a falling star
Lights up a purple sky
And as I wonder where you are
I'm so lonesome cry



Jolene


Play this as quickly as possible:


     
Am

e|-----------------------------------------------|
B|------------0-x--0-h-1--------------1-p-0------|
G|---0-h-2----2-x--2---2--------------2----------|
D|---------2---------------------2------------2--|
A|---0---------------------0---------------------|
E|--------------0---------------------0----------|


 
Am
       
C
       
G
       
Am

Jolene, Jolene, Jolene, Jolene
     
G
                                   
Am

I`m begging of you please dont`t take my man
  
Am
      
C
       
G
      
Am

Jolene, Jolene, Jolene, Jolene
   
G
                   
Em
               
Am

Please don`t take him just because you can

       
Am
        
C

Your beauty is beyond compare
       
G
                
Am

With flaming locks of auburn hair
       
G
             
Em
              
Am

With ivory skin and eyes of emerald green
       
Am
             
C

Your smile is like a breath of spring
       
G
                  
Am

Your voice is soft like summer rain
       
G
         
Em
             
Am

And i cannot compete with you, Jolene

    
Am
             
C

He talks about you in his sleep
     
G
                
Am

There`s nothing i can do to keep
     
G
               
Em
               
Am

From crying when he calls your name, Jolene
    
Am
            
C

And i can easily understand
    
G
                 
Am

How you could easily take my man
    
G
               
Em
                   
Am

But you don`t know what he means to me, Jolene

  
Am
      
C
       
G
       
Am

Jolene, Jolene, Jolene, Jolene
      
G
                                
Am

I`m begging of you please don`t take my man
  
Am
      
C
       
G
       
Am

Jolene, Jolene, Jolene, Jolene
  
G
                    
Em
             
Am

Please don`t take him just because you can

   
Am
              
C

you could have your choice of men
    
G
              
Am

But i could never love again
    
G
           
Em
          
Am

He`s the only one for me, Jolene
   
Am
               
C

I had to have this talk with you
   
G
            
Am

My happines depends on you
   
G
            
Em
           
Am

Whatever you decide to do, Jolene


Jolene, Jolene ,Jolene, Jolene
I`m begging of you please don`t take my man
Jolene, Jolene, Jolene, Jolene
Please don`t take him even though you can



Deep River Blues


E7 0X6757

Eb6 0X5656


Chorus:

[E7]Let it rain, [Eb6]let it pour,
[E7]Let it rain a whole lot more,
[A]'Cause I got them deep river [E]blues.
[E7]Let the rain drive right on,
[E7]Let the waves sweep along,
[A]'Cause I got them deep river [E]blues. [B7]

[E7]My old gal's [Eb6]a good old pal,
[E7]And she looks like a water fowl,
[A]When I get them deep river [E]blues.
[E7]Ain't no one to cry for me,
[E7]And the fish all go out on a spree
[A]When I get them deep river [E]blues. [B7]

[E7]Give me back [Eb6]my old boat,
[E7]I'm gonna sail if she'll float,
[A]'Cause I got them deep river [E]blues,
[E7]I'm goin' back to Muscle Shoals,
[E7]Times are better there I'm told,
[A]Boys, I got them deep river [E]blues. [B7]

[Chorus]

[E7]If my boat [Eflat6]sinks with me.
[E7]I'll go down, don't you see,
[A]'Cause I got them deep river [E]blues,
[E7]Now I'm gonna say goodbye,
[E7]And if I sink, just let me die,
[A]'Cause I got them deep river [E]blues. [B7]


-7----------7-----------|---6----------6------------------|
-------5----------------|----------5----------------------|
-----7------------------|--------6------------------------|
-------6------------6---|----------5----------------------|
------------------------|---------------------------------|
-0--------------0-------|---0--------------0--------------|


-7-----------0----------|---------3------0--2-------------|
------8b-----------0----|--1h2--2----2--------------------|
------------------------|---------------------------------|
---------6------------0-|---------2-----------2-----------|
------------------------|--0-------------0----------------|
----0----------0--------|---------------------------------|


--0---------------------0----------------3----------------|
---------------2------------------------------------------|
----------1------------------------1-------------1--------|
------------2---------------2--------2--------------2-----|
----------------------------------------------------------|
--0-----------------0----------0--------------0-----------|


--2-------------------------------------------------------|
-------------3b------3b----0----------0-------------------|
------2-------------------------2-----------2-------------|
--------1-------------1-----------1-----------1-----------|
--2--------------2---------2------------2-----------------|
----------------------------------------------------------|


-7----------7-----------|---6----------6------------------|
-------5----------------|----------5----------------------|
-----7------------------|--------6------------------------|
-------6------------6---|----------5----------------------|
------------------------|---------------------------------|
-0--------------0-------|---0--------------0--------------|


-7-----------0----------|---------3------0--2-------------|
------8b-----------0----|--1h2--2----2--------------------|
------------------------|---------------------------------|
---------6------------0-|---------2-----------2-----------|
------------------------|--0-------------0----------------|
----0----------0--------|---------------------------------|


--0---------------------|------------3--------2-----------|
----------0-----2-------|--0------------------------------|
-----1------------------|------2--------------------------|
-------2-----------2----|--------1------------1-----------|
------------------------|--2-------------2----------------|
--0---------0-----------|---------------------------------|


--0---------0--------------0-------0-----------0-----------|
------------------0h2-----------------------2--------------|
----0h1----------------------------------1-----------------|
--------2--------------2--------------2-----0-----2--------|
-----------------------------------------------------------|
--0-----------0----------------0---------------------------|



Passionate Kisses (Lucinda Williams)


[Acoustic guitar: capo 4.  Electric: no
capo, key of E.]


C
  
G
  
Am
  
F

[intro]

C
            
G

Is it too much to ask?
Am
                         
F

I want a comfortable bed that won't hurt
my back
C
          
G

Food to fill me up
Am
               
F

And warm clothes and all that stuff

C
                   
Em

Shouldn't I have this,
Am

Shouldn't I have this?
F

Shouldn't I have all of this, and

C
             
F

Passionate kisses
C
             
F

Passionate kisses, whoa ohh oh
C
             
F

Passionate kisses from
C
  
G
  
Am
   
F

you [instrumental]

Is it much to demand
I want a full house and a rock and roll band
Pens that won't run out of ink
And cool quiet and time to think

Shouldn't I have this,
Shouldn't I have this?
Shouldn't I have all of this, and
Passionate kisses
Passionate kisses, whoa ohh oh
Passionate kisses from
you [instrumental twice]

Do I want too much?
Am I going overboard to want that touch?
I shouted out to the night:
"Give me what I deserve, 'cause it's my right"

Shouldn't I have this,
Shouldn't I have this?
Shouldn't I have all of this, and
Passionate kisses
Passionate kisses, whoa ohh oh
Passionate kisses from you

Passionate kisses
Passionate kisses, whoa ohh oh
Passionate kisses from
you [instrumental twice; end on C.]


TAB (electric guitar, no capo):
E
              
B

C#m
            
A

E ----0-----0-----|----0-------0---|----0-----0-----|----0-----0-----|
B 12----10----9---|7-----9---------|5-----4-----2---|--0-----0-------|
G ----------------|----------------|----------------|2-----1---------|
D ----------------|----------------|----------------|------------4---|
A ----------------|----------------|----------------|----------------|
E ----------------|----------------|----------------|----------------|
^ . ^ . ^ . ^ .  ^ . ^ . ^ . ^ .  ^ . ^ . ^ . ^ .  ^ . ^ . ^ . ^ .

- transcribed by Adam Schneider, http://adamschneider.net/



Ramblin' Man (Hank Williams)


      
Am

I can settle down and be doin' just fine

      
E7
                                 
Am

Til I hear an old train rollin' down the line


Then I hurry straight home and pack

         
E7
                               
Am

And if I didn't go, I believe I'd blow my stack


I love you baby, but you gotta understand

         
E7
                               
Am

When the Lord made me, he made a ramblin' Man.


Some folks might sa-ay that I'm no good
That I wouldn't settle down if I could
But when that open ro-oad starts to callin' me
There's somethin' o'er the hill that I gotta see
Sometimes it's har-rd but you gotta understand
When the Lord made me, He made a Ra-amblin' Man.

I love to see the tow-owns a-passin' by
And to ride these rails 'neath God's blue sky
Let me travel this la-and from the mountains to the sea
'Cause that's the life I believe He meant for me
And when I'm go-one and at my grave you stand
Just say God called home your Ra-amblin' Man.