Chordproc: Joni Mitchell

Joni Mitchell


  1. A Case Of You
  2. Both Sides Now
  3. California
  4. Little Green

A Case Of You


Tuning: EADAAE


NOTE :
-------

The original has one guitar part and a part for dulcimer
which uses an open tuning of some kind, and plays the introduction
bit. I've worked out a way of playing this on guitar using an
alternative tuning, and I've also written out chord shapes
which work well for standard tuning. (All chord shapes
given at the end). Please note - I've written the chord names for
normal tuning above the TAB for alternative-tuning. The chord names
do not neccessarily correspond to what the TAB plays.

Words are written under the corresponding TAB - I've tried to put
the chord changes in the right place with respect to the words, but
it might not be 100% accurate.


The dulcimer part using alternative tuning is basically the same for each
verse - but I only tabbed it once for the first verse.

For the dulcimer part use EADAAD tuning, i.e tune B down to A
and G up to A.


\ - slide
h - hammer on
p - pull off


Intro:
-------

E---2----7----10----9--10---7-7---7-7---5\3\5---5--5----3-3---2-2----
A---0----0----0-----0--0----0-0---0-0---0-------0--0----0-0---0-0----
A---0----0----0-----0--0----0-0---0-0---0-------0--0----0-0---0-0----
D---0----5----9-----7--9----5-5---5-5---4\2\4---4--4----2-2---0-0----
A--------------------------------------------------------------------
E--------------------------------------------------------------------




E--0-0----2-------------------0-0------0-0--------
A--0-0----0--5--5--5p4--4--5--0-0------0-0-------
A--0-0----0--0-----0----0--0--0-0------0-0-------
D---------0--7-----------------------------------
A--4-4-------------0----0--0--0-0----0-----------
E------------7------------------------------------



Verse 1:
--------

   
D
                     
A/c#
                  
Bm7


E--2---2-2---------------0----0--0--------------------------
A--0---0-0---------------0----0--0--------------5-----------
A--0---0-0---------------0----0--0--------------0-----------
D--0---0-0--------------------------------------7-----------
A------------------------4----4--4--------------------------
E-----------------------------------------------7-----------

        Just before our love got lost you said



   
Bm7


E--------------------------------------------------------
A--5-5----------5----------5----------------------------------
A--0-0----------0----------0----------------------------------
D--7-7----------7----------7--------------------------------
A-------------------------------------------------------
E--7-7----------7----------7---------------------------------

     I am as constant as a northern star and I said



   
Em7
                    
D


E--3--3-3------------------2------2--2------------------------
A--0--0-0------------------0------0--0-------------------------
A--0--0-0------------------0------0--0-------------------------
D--2--2-2------------------0------0--0-----------------------
A------------------------------------------------------
E-------------------------------------------------------

       Constantly in the darkness,     where's that at ?



   
A/c#
   
Bm7
                    
Asus4
  
A
      
Asus4
 
A5


E--0-------------------------------------------------0-0---0---
A--0------5-----5-----------------5----5p4---4---5---0-0---0---
A--0------0-----0-----------------0----0-----0---0---0-0---0---
D---------7-----7----------------------------------------------
A--4------------------------------0----0-----0-------0-0---0---
E---------7-----7----------------------------------------------

         If you want me I'll be in the bar



           
D
                
A/c#


E----------2---2-2----------0-----0-0--------------------
A----------0---0-0----------0-----0-0--------------
A----------0---0-0----------0-----0-0------------
D----------0---0-0------------------------------------
A---------------------------4-----4-4------------------
E----------------------------------------------

On the back of a cartoon  coa    -   ster



   
Bm7


E-------------------------------------------------------
A--5-----5------5------5-5--------5----------------------------
A--0-----0------0------0-0--------0----------------------------
D--7-----7------7------7-7--------7--------------------------
A------------------------------------------------------
E--7-----7------7------7-7--------7------------------------------

         In the blue TV     screen light



   
Em7
                    
D


E--3----3-3---------------2------2---------------------------
A--0----0-0---------------0------0----------------------------
A--0----0-0---------------0------0----------------------------
D--2----2-2---------------0------0--------------------------
A------------------------------------------------------
E-------------------------------------------------------

          I drew a map of Canada



   
D/a
 
D
    
A/c#
 
Bm7


E--2---2----0-----------------------------------------------
A--0---0----0----5----5-5----5-5----5-5----------------------------
A--0---0----0----0----0-0----0-0----0-0-----------------------------
D------0----2----7----7-7----7-7----7-7--------------------------
A--0--------0---------------------------------------------
E----------------7----7-7----7-7----7-7------------------------

   Oh  Ca - na - da



       
G
     
D
                
A
     
Asus2
 
A


E------3-----2----------------0-------0--0-----------------
A------0-----0----------------0-------0--0------------------
A------0-----0----------------4-------2--4------------------
D------2-----0----------------2-------2--2----------------
A-----------------------------0-------0--0--------------
E-------------------------------------------------------

 With your face sketched on it twice



     
G
                       
F#m


E----10----------------------9-----------------------------
A----0-----------------------0-----------------------------
A----0-----------------------0----------------------------
D----9-----------------------7---------------------------
A----10----------------------9----------------------------
E-------------------------------------------------------

  Oh, you're in my blood like holy wine



    
Em7
    
A7sus4
     
D
           
Dsus2


E---7------7--7-------2----2-2-------------------------------
A---0------0--0-------0----0-0--------------------------------
A---0------0--0-------0----0-0--------------------------------
D---5------5--5-------0----0-0------------------------------
A---7------0--0------------------------------------------
E-------------------------------------------------------

    Taste so bitter   and so sweet  oh



   
D
                  
A
  
Bm7


E--2---2---------2----0-----------------------------------
A--0---0---------0----0---5-5---5-5----5-5----5-------------------
A--0---0---------0----0---0-0---0-0----0-0----0-------------------
D--0---0---------0--------7-7---7-7----7-7----7----------------
A---------------------4-------------------------------
E-------------------------7-7---7-7----7-7----7--------------

   I could drink a case of you              darling and I would



   
G
    
D
             
Asus4
       
A
            
D


E--3----2-------------0-------------0----------2---------------
A--0----0-------------0-------------0----------0----------------
A--0----0-------------4-------------4----------0----------------
D--2----0-------------2-------------2----------0--------------
A---------------------0-------------0----------------------
E-------------------------------------------------------

  still   be on my feet oh I would still be on my



       
G
                  
Em7
  
A7sus4
 
D
    
Dsus2
 
D
    
A7
    
D


E------7----10----9--10---7-7---7-7---5-5-----5--5----3-3---2-2----
A------0----0-----0--0----0-0---0-0---0-0-----0--0----0-0---0-0----
A------0----0-----0--0----0-0---0-0---0-0-----0--0----0-0---0-0----
D------5----9-----7--9----5-5---5-5---4-4-----4--4----2-2---0-0----
A--------------------------------------------------------------------
E--------------------------------------------------------------------

    fee     -     ee       -        eet


    
A
     
D
  
E7
   
Asus4
 
A
 
Asus4
 
A5


E--0-0----2---------------------0-0------0-0--------
A--0-0----0--5--5--5p4--4---5---0-0------0-0-------
A--0-0----0--0-----0----0---0---0-0------0-0-------
D---------0--7-----------------------------------
A--4-4-------------0----0---0---0-0----0-----------
E------------7------------------------------------




Verse 2:
--------

D
         
A
            
Bm7

Oh I am a lonely  painter

Bm7

I live in a box of paints

G
                     
D

I'm frightened by the devil

        
A
        
Asus2
            
A
         
Asus4
  
A

And I'm drawn to those ones that ain't afraid

     
D
                          
A
                         
Bm7

I remember that time you told me you said love is touching souls

Bm7

Surely you touched mine cos

G
               
D

Part of you pours out of me

A
         
D/a
                 
A
    
D/a
   
A7

In these lines from time to time

G
                       
F#m

Oh You're in my blood like holy wine

Em7
      
A7sus4
  
D
         
Dsus4
   
Dsus2

Taste so bitter   and so sweet

D
                       
A
   
Bm7

oh I could drink a case of   you darling

G
       
D
              
A

Still I'd   be on my feet

        
Asus2
   
A
   
D

I would still be on my


       
G
                  
Em7
  
A7sus4
 
D
    
Dsus2
 
D
    
A7
    
D


E------7----10----9--10---7-7---7-7---5-5-----5--5----3-3---2-2----
A------0----0-----0--0----0-0---0-0---0-0-----0--0----0-0---0-0----
A------0----0-----0--0----0-0---0-0---0-0-----0--0----0-0---0-0----
D------5----9-----7--9----5-5---5-5---4-4-----4--4----2-2---0-0----
A--------------------------------------------------------------------
E--------------------------------------------------------------------

          fee     -     ee       -        eet



    
A
     
D
  
E7
   
Asus4
 
A
 
Asus4
 
A


E--0-0----2---------------------0-0------0-0--------
A--0-0----0--5--5--5p4--4---5---0-0------0-0-------
A--0-0----0--0-----0----0---0---0-0------0-0-------
D---------0--7-----------------------------------
A--4-4-------------0----0---0---0-0----0-----------
E------------7------------------------------------


Verse 3:
---------

        
D
               
A
                              
Bm7

I met a woman she had a mouth like yours she knew your life

Bm7

She knew your devils and your deeds and she said

G
          
D

Go to him,  stay with him if you can

A
    
Asus2
         
Asus4
   
A

But be prepared to bleed

       
G
                            
F#m

Oh but you are in my blood you're my holy wine

Em7
        
A7sus4

You're so bitter

D
      
Dsus4
 
D
  
Dsus2

Bitter and   so sweet

D
                     
A
    
Bm7

Oh I could drink a case of you darling

G
            
D
     
Asus4
 
A

Still I'd be on my feet

A
             
D

I would still be on


       
G
                  
Em7
  
A7sus4
 
D
    
Dsus2
 
D
    
A7
    
D


E------7----10----9--10---7-7---7-7---5-5-----5--5----3-3---2-2----
A------0----0-----0--0----0-0---0-0---0-0-----0--0----0-0---0-0----
A------0----0-----0--0----0-0---0-0---0-0-----0--0----0-0---0-0----
D------5----9-----7--9----5-5---5-5---4-4-----4--4----2-2---0-0----
A--------------------------------------------------------------------
E--------------------------------------------------------------------

      my   fee   -    eet



    
A
     
D
  
E7
   
Asus4
 
A
 
Asus4
 
A5
             
Asus2
 
A
  
G
  
C


E--0-0----2---------------------0-0----/9-7-5--------------0-0----
A--0-0----0--5--5--5p4--4---5---0-0-----0-0-0---5p4--4--5--3-3-----
A--0-0----0--0-----0----0---0---0-0-----0-0-0---0----0--0---------
D---------0--7----------------------------------------------------
A--4-4-------------0----0---0---0-0-------------0----0-----3-3----
E------------7------------------------------------------3---------



Both Sides Now


Tuning: DADF#AD


Chord Shapes :
---------------

(For normal tuned guitar)


 
EADGBE
    
EADGBE
    
EADGBE
    
EADGBE
    
EADGBE
     
EADGBE
    
EADGBE

 xx0232    x4x220    x24232    3x0033    3x0003     x02230    x02220


   
D
        
A/c#
       
Bm7
       
G
         
G
          
Asus4
      
A




 
EADGBE
    
EADGBE
    
EADGBE
    
EADGBE
     
EADGBE
    
EADGBE
    
EADGBE

 x2x230    x0225x    x02200    244222     022030    x02030    x32010


  
Bm11
      
A5
        
Asus2
     
F#m
        
Em7
      
A7sus4
      
C




 
EADGBE
    
EADGBE
    
EADGBE
    
EADGBE
      
EADGBE

 xx0234    xx0230    x0423x    x02020      x05250


  
Dsus4
     
Dsus2
     
D/a
        
A7
          
A7

From SP DiBartola (sdibarto@magnus.acs.ohio-state.edu)

Here's my revision of your transcription:

Both Sides Now
by Joni Mitchell
>From the album Clouds Reprise 1969
Chord shapes by Susan McNamara (sem8@cornell.edu)

Open D Tuning: DADF#AD  Capo 4 (actual key: F#)

Chords: A7sus4 riff:
D(1) 000000 DADF#AD

Gadd9 020100 DBDGAD         D------------------

Asus4 040300 DC#DAAD*        A--0---------------

A7sus4(1) 002100 DAEGAD         F#-1---------------

D(2) 004300 DAF#AAD         D--2--0------------

D(3) 000304 DADAAF#         A--0----3-2-0------

A7sus4(2) 000102 DADGAE         D------------3-0---


(* The chord shape 040300 has been called a Dmaj7 by some people but I think

Asus4 makes more sense in this key)

INTRO

D(1)
Gadd9
D(1)
Gadd9
D(1)
Gadd9
D(1)
Gadd9


VERSE 1

Asus4
    
Gadd9
    
A7sus4(1)
  
D(2)
   
D(1)

Rows and flows of ang   -    el     hair

Gadd9
  
D(1)
  
Asus4
     
Gadd9
  
A7sus4(1)
   
D(2)

And    ice   cream castles    in          the air

    
Asus4
   
Gadd9
   
A7sus4(1)

And feather canyons everywhere

Asus4          Gadd9       A7sus4(1)     Riff
I've looked at clouds that way

    
Asus4
    
Gadd9
   
A7sus4(1)
 
D(2)
 
D(1)

But now they only    block     the  sun

     
Asus4
    
Gadd9
   
A7sus4(1)
   
D(2)

They rain and snow on ev'    -    ry     one

   
Asus4
         
Gadd9
      
A7sus4(1)

So many things I would have done

    Asus4      Gadd9    A7sus4(1)    Riff
But clouds got in my    way

CHORUS
     
D(3)
      
A7sus4(2)
   
Gadd9
   
D(2)?
  
D(1)

I've looked at clouds from both    sides  now

     
Gadd9
  
D(1)
      
Gadd9
    
D(1)

>From up and down, and still somehow

     
Asus4
   
Gadd9
     
A7sus4(1)
  
D(1)

It's clouds' illusions I          recall

  
Asus4
  
Gadd9
  
D(1)
 
A7sus4(1)

I really don't  know clouds

D(1)
     
Gadd9
    
D(1)
Asus4
 
Gadd9
   
D(1)

at all

VERSE 2

Moons and Junes and ferris wheels,
the dizzy dancing way you feel
as every fairy tale comes real;
I've looked at love that way.
But now it's just another show.
You leave 'em laughing when you go
and if you care, don't let them know,
don't give yourself away.

CHORUS 2

I've looked at love from both sides now,
from give and take, and still somehow
it's love's illusions I recall.
I really don't know love at all.

VERSE 3

Tears and fears and feeling proud
to say "I love you" right out loud,
dreams and schemes and circus crowds,
I've looked at life that way.
But now old friends are acting strange,
they shake their heads, they say I've changed.
Something's lost but something's gained
in living every day.

CHORUS 3

I've looked at life from both sides now,
from win and lose, and still somehow
it's life's illusions I recall.
I really don't know life at all.



California


Tuning: EAC#G#BE


For this song, Joni plays the dulcimer and James Taylor plays the acoustic
guitar. What I've done here is to write out an arrangement of Joni's dulcimer
part for guitar, using an alternative tuning. This arrangement is very similar
to the actual dulcimer part, but I've filled out the chords a little in some
places, while sticking to the original harmony as much as possible.

The dulcimer part has a little figure (written out in tablature) for the intro,
and most of the rest is written out just with chord shapes.

I've also written out the chords and a little tablature for the James Taylor
acoustic part. This uses standard tuning, with a capo at the 2nd fret. Note
that all chords and tablature for the acoustic guitar part write the fret
numbers relative to the capo.

(The dulcimer part arranged for guitar here doesn't need a capo.)

The original acoustic part adds a few `noodles' on top of the basic chords
(mostly sus4 and sus2 type of things). I've tried to include a few of these,
but I havn't tried to TAB note for note what is played.

All names of chord shapes are written as they sound, i.e for the acoustic
part, when you play a D chord shape (xx0232) with the capo at the 2nd fret,

it sounds like an E chord, so I've written the chord here as E.

OK ?

To play the dulcimer part, tune to : E A C# G# B E     (no capo used)

INTRO :
--------

Dulcimer:
                 
A
                        
B
         
E
                  
A/b


E-------------------------------------------2---------------------------0--0--
B---4h5p4-0---0--2---2-2---2---2-----0----4---4-----0---0-0---0-0-------2--2--
G#----------0----1---1-1---1-------0------3-----3---0---0-0---0-0-------1--1--
C#---------------3---3-3---3------------------------3---3-3---3-3-------------
A----------------0---0-0---0------------------------------------------2-2--2--
E---------------------------------------------------0---0-0---0-0-------------



VERSE 1:
--------

E

Sitting in a park in Paris France

A
                       
E/g#
       
F#7

Reading the news and it sure looks bad

F#7

They won't give peace a chance

F#m/b
      
B7
                      
E

That was just a dream some of us had

E
                
A

Still a lot of lands to see

      
E/g#
               
F#7

But I wouldn't want to stay here

F#7
             
F#m/b
      
B7

It's too old and cold and settled in its ways here




CHORUS:
-------

A
   
Asus4
        
A

     Ah but California

    
E
     
C#7
       
C#7/g#
   
C#7

California I'm coming  home

A

I'm gonna see the folks I dig

E/g#
                    
B
   
Bsus2

I'll even kiss a sunset pig

 
B
              
E

California I'm coming home


Guitar fill:

  
E
            
Amaj7
         
E
      
Esus4
 
E
        
B/a


E--0h2p0--------2---2--0----------2---3---2-----------------
B--3-----3---3--3---3--3-----3----3---3---3---------3--3----
G----------2----4---4--4-----2----2---2---2---------4--4----
D----------------------------0----0---0---0---------5--5----
A------------------------------------------------0--0--0----
E---------------3---3---------------------------------------




VERSE 2:
---------
  
E

I met a redneck on a Grecian isle

A
                          
F#7

Who did the goat dance very well

F#7

He gave me back my smile

F#m/b
        
B7

But he kept my camera to sell

E

Oh the rogue, the red red rogue

A

He cooked good omelettes and stews

      
F#

And I might have stayed on with him there

       
B7

But my heart cried out for you




CHORUS:
--------
A
  
Asus4
     
A

          California

  
E
          
C#7
     
C#7/g#
  
C#7

Oh California I'm coming home

   
A

Oh make me feel good rock and roll band

Esus2/g#

I'm your biggest fan

B

California I'm coming home


Guitar fill:

  
E
            
Amaj7
         
E
      
Esus4
 
E


E--0h2p0--------2---2--0-----2----2---3---2-----------
B--3-----3---3--3---3--3-----3----3---3---3-----------
G----------2----4---4--4-----2----2---2---2-----------
D----------------------------0----0---0---0-----------
A----------------------------------------------------
E---------------3---3---------------------------------




MIDDLE 8:
---------

E
            
F#

Oh it gets so lonely

A

  When you're walking

E
                             
B

  And the streets are full of strangers

B
              
F#
   
E/g#
   
A
                 
F#7

All the news of home you read just give you the blues

D
                 
B
        
Bsus4
  
B
  
Bsus2
  
B

Just give you the blues


Dulcimer:

      
A
                        
B
         
E
                  
A/b


E--------------------------------2---------------------------0--0--
B-----2---2-2---2---2-----0----4---4-----0---0-0---0-0-------2--2--
G#----1---1-1---1-------0------3-----3---0---0-0---0-0-------1--1--
C#----3---3-3---3------------------------3---3-3---3-3-------------
A-----0---0-0---0------------------------------------------2-2--2--
E----------------------------------------0---0-0---0-0------------




VERSE 3:
---------

(For the standard tuning acoustic, use the A,F#7 and B shapes which are
higher up the neck - I've marked them below with a '*' )


     
E
                                      
A
*
So I bought me a ticket I caught a plane to Spain

                                
F#7
*
Went to a party down a red dirt road


There were lots of pretty people there

B
*           
A
*               
E

Reading Rolling Stone reading Vogue

E
                          
A
*
They said how long can you hang around

A
*                  
F#7
*
I said a week maybe two

                         
B
*
Just until my skin turns brown

              
A
*
And then I'm going home



CHORUS:
--------

A
 
Asus4
   
A

    To California

   
E

California

          
C#7
   
C#7/g#

I'm coming home

C#7
  
A

Oh   will you take me as I am

E/g#

Strung out on another man

B
                      
E

California I'm coming home


Guitar fill:

  
E
            
Amaj7
         
E
      
Esus4
 
E


E--0h2p0--------2---2--0-----2----2---3---2-----------
B--3-----3---3--3---3--3-----3----3---3---3-----------
G----------2----4---4--4-----2----2---2---2-----------
D----------------------------0----0---0---0-----------
A----------------------------------------------------
E---------------3---3---------------------------------



Middle 8:
----------

E
             
F#

Oh it gets so lonely

A

  When you're walking

E
                           
B

And the streets are full of strangers

                
F#
       
A

All the news of home you read

               
E
                  
B

More about the war and the bloody changes

  
F#
                     
A

Oh will you take me as I am

                      
E

Will you take me as I am

        
B
                      
F#

Will you, will you take me as I am

A
              
E
            
B

   Mmm mmm mmm mmm mmm mmm mmm

             
F#

Take me as I am ......




Chord Shapes :
--------------

Standard tuning (James Taylor acoustic guitar part)
REMEMBER - these are capoed at the 2nd fret (fret numbers relative to
capo position)



 
EADGBE
    
EADGBE
     
EADGBE
     
EADGBE
     
EADGBE
    
EADGBE

 xx0232    3x0003     020100     x02020     3x0013    xx5433


   
E
         
A
          
F#7
        
B7
        
Asus4
      
A
*


 
EADGBE
    
EADGBE
     
EADGBE
     
EADGBE
     
EADGBE
    
EADGBE

 x21202    x02220     2x023x     x02230     x02200    2x0230


   
C#7
        
B
        
E/g#
       
Bsus4
      
Bsus2
    
Esus2/g#



 
EADGBE
    
EADGBE
     
EADGBE
     
EADGBE
     
EADGBE
     
EADGBE

 x32010    x02030     x0543x     x0200x     2x120x     xx2434


   
D
       
B7sus4
      
A/b
        
F#m/b
     
C#7/g#
      
F#7
*


 
EADGBE

 xx7655


   
B
*



Alternative tuning chords (Guitar version of dulcimer part)
------------------------------------------------------------

I havn't tabbed all the chords, but these are the basic ones.


 
E
  
A
  
C#
 
G#
 
B
  
E
      
E
  
A
  
C#
 
G#
 
B
  
E
      
E
  
A
  
C#
 
G#
 
B
  
E
      
E
  
A
  
C#
 
G#
 
B
  
E

 0  2  3  0  0  0      x  x  3  3  5  4      x  0  3  1  2  0      x  0  3  5  5  5

       
E
                      
E
                    
A
                       
A




 
E
  
A
  
C#
 
G#
 
B
  
E
      
E
  
A
  
C#
 
G#
 
B
  
E
      
E
  
A
  
C#
 
G#
 
B
  
E
      
E
  
A
  
C#
 
G#
 
B
  
E

 2  4  3  2  2  2      x  2  2  1  0  2      x  x  0  3  2  1      x  0  3  1  3  0

      
F#7
                    
B7
                    
C#7
                   
Asus4




 
E
  
A
  
C#
 
G#
 
B
  
E
      
E
  
A
  
C#
 
G#
 
B
  
E

 4  x  3  0  0  0      x  2  x  1  2  0

      
E/g#
                    
A/b



Little Green


Tuning: DGDGBD (Open G)


Gmaj7
     
Bm6
        
Am6
       
G2sus4
     
G
         
G7sus2
    
C
        
Bb

x00434    x44030     x22010    x00210     000000    x00203    x55555   x33333



Intro:
  
Gmaj7
   
Bm6
   
Am6
     
G2sus4
          
G

D|4-----4---------|------0-------0|----0----------|------0--------|
B|3---3-3-----3---|3-------1------|0H1---1-----1--|0-----------0--|
G|----4-----4-4---|0---0---0---0--|0H2-------2----|----0-----0---0|
D|--------0-0-0-0-|--4-------2----|--------0-0-0-0|--0-----0------|
G|0-----0---------|4-------2------|0-----0--------|0-----0--------|
D|----------------|---------------|--------- -----|---------------|


  
Gmaj7
   
Bm6
   
Am6
     
G2sus4
          
G

D|4-----4-----4---|------0-------0|---------------|----0----------|
B|3---3-3---3-3---|3-------1------|1-----0-----0--|0H1---0-----0--|
G|----4-----4-----|----0-------0--|----0-----2----|----------0---0|
D|--0-----0-----0-|--4-------2----|--0-----0-----0|--------0------|
G|0-----0-----0---|4-------2------|0-----0-----0--|0-----0--------|
D|----------------|---------------|---------------|---------------|
           Born             with the moon in cancer


  
Gmaj7
   
Bm6
   
Am6
     
G2sus4
          
G7sus2

D|4-----4-----4---|------0-------0|---------------|3-----3-----3--|
B|3---3-3---3-3---|3-------1------|1-----0-----0--|0-----0-----0--|
G|----4-----4-----|----0-------0--|----0-----2----|----2-----2----|
D|--0-----0-----0-|--4-------2----|--0-----0-----0|--0-----0-----0|
G|0-----0-----0---|4-------2------|0-----0-----0--|0-----0-----0--|
D|----------------|---------------|---------------|---------------|
          Choose           her a name she will answer to   Call her


  
Am6
                          
G
   
C

D|------0---------|0-----0-----0--|------------5--|------5-----5--|
B|1-----------1---|1-----1-----0--|5-----5-----5--|5-----5-----5--|
G|----0-----0-----|----0-----0----|----5-----5----|----5-----5----|
D|--2-----2-----2-|--2-----2-----0|--5-----5-----5|--5-----5-----0|
G|2-----2-----2---|2-----2-----0--|5-----5-----5--|5-----5-----5--|
D|----------------|---------------|---------------|---------------|
  Green, and the winters cannot fade her, call her Green for the
  children who've made her Little



D|4-----4-----4---|------0-------0|---------------|----0----------|
B|3---3-3---3-3---|3-------1------|1-----0-----0--|0H1---0-----0--|
G|----4-----4-----|----0-------0--|----0-----2----|----------0---0|
D|--0-----0-----0-|--4-------2----|--0-----0-----0|--------0------|
G|0-----0-----0---|4-------2------|0-----0-----0--|0-----0--------|
D|----------------|---------------|---------------|---------------|
  Green,                   be a gypsy dancer.


D|4-----4-----4---|------0-------0|---------------|----0----------|
B|3---3-3---3-3---|3-------1------|1-----0-----0--|0H1---0-----0--|
G|----4-----4-----|----0-------0--|----0-----2----|----------0---0|
D|--0-----0-----0-|--4-------2----|--0-----0-----0|--------0------|
G|0-----0-----0---|4-------2------|0-----0-----0--|0-----0--------|
D|----------------|---------------|---------------|---------------|
            He             went to California


D|4-----4-----4---|------0-------0|---------------|3-----3-----3--|
B|3---3-3---3-3---|3-------1------|1-----0-----0--|0-----0-----2--|
G|----4-----4-----|----0-------0--|----0-----2----|----2-----2----|
D|--0-----0-----0-|--4-------2----|--0-----0-----0|--0-----0-----0|
G|0-----0-----0---|4-------2------|0-----0-----0--|0-----0-----0--|
D|----------------|---------------|---------------|---------------|
           Hearing that everything's warmer there          so you


D|------0---------|0-----0-----0--|------------5--|------5-----5--|
B|1-----------1---|1-----1-----0--|5-----5-----5--|5-----5-----5--|
G|----0-----0-----|----0-----0----|----5-----5----|----5-----5----|
D|--2-----2-----2-|--2-----2-----0|--5-----5-----5|--5-----5-----0|
G|2-----2-----2---|2-----2-----0--|5-----5-----5--|5-----5-----5--|
D|----------------|---------------|---------------|---------------|
  Write him a letter and say 'her heyes are blue', he sends you a poem
  and she's lost to you


D|4-----4-----4---|------0-------0|---------------|0--------------|
B|3---3-3---3-3---|3-------1------|1-----0-----0--|0--------------|
G|----4-----4-----|----0-------0--|----0-----2----|---------------|
D|--0-----0-----0-|--4-------2----|--0-----0-----0|---------------|
G|0-----0-----0---|4-------2------|0-----0-----0--|0--------------|
D|----------------|---------------|---------------|---------------|
    Little green     He's a non-conformer.           Just a Little


D|------5--------|------3-----3--|----------0----|------0--------|
B|5-----5-----5--|3-----3-----3--|0-----1-----1--|1---0-0-----0--|
G|----5-----5----|----3-----3----|----0----------|----------0---0|
D|--5-----5-----5|--3-----3-----3|--0-----0-----0|--0------------|
G|5-----5-----5--|3-----3-----3--|0-----0-----0--|0---0-0--------|
D|---------------|---------------|---------------|---------------|
  Green  like the color when the spring is born       There'll be


D|------0--------|------0--------|0--------------|0--------------|
B|3-----------3--|1-----------1--|1-----0-----0--|0--------------|
G|----0-----0----|----0-----0----|----0-----2----|---------------|
D|--4-----4-----4|--2-----2-----2|--0-----0-----0|---------------|
G|4-----4-----4--|2-----2-----2--|0-----0-----0--|0--------------|
D|---------------|---------------|---------------|---------------|
  Crocuses to bring to school tomorrow             Just a Little


  
C
               
Bb
              
G
     
G6
            
G

D|------5--------|------3-----3--|----------0----|------0--------|
B|5-----5-----5--|3-----3-----3--|0-----1-----1--|1---0-0-----0--|
G|----5-----5----|----3-----3----|----0----------|----------0---0|
D|--5-----5-----5|--3-----3-----3|--0-----0-----0|--0------------|
G|5-----5-----5--|3-----3-----3--|0-----0-----0--|0---0-0--------|
D|---------------|---------------|---------------|---------------|
  Green  like the nights when the northern lights perform. There'll be


D|------0--------|------0--------|------0-------0|---------------|----0----------|
B|3-----------3--|1-----------1--|3-------1------|1-----0-----0--|0H1---0-----0--|
G|----0-----0----|----0-----0----|----0-------0--|----0-----2----|----------0---0|
D|--4-----4-----4|--2-----2-----2|--4-------2----|--0-----0-----0|--------0------|
G|4-----4-----4--|2-----2-----2--|4-------2------|0-----0-----0--|0-----0--------|
D|---------------|---------------|---------------|---------------|---------------|
  icicles and birthday clothes, and sometimes there'll be sorrow



D|4-----4-----4---|------0-------0|---------------|----0----------|
B|3---3-3---3-3---|3-------1------|1-----0-----0--|0H1---0-----0--|
G|----4-----4-----|----0-------0--|----0-----2----|----------0---0|
D|--0-----0-----0-|--4-------2----|--0-----0-----0|--------0------|
G|0-----0-----0---|4-------2------|0-----0-----0--|0-----0--------|
D|----------------|---------------|---------------|---------------|
            Child with a child       pretending


D|4-----4-----4---|------0-------0|---------------|3-----3-----3--|
B|3---3-3---3-3---|3-------1------|1-----0-----0--|0-----0-----0--|
G|----4-----4-----|----0-------0--|----0-----2----|----2-----2----|
D|--0-----0-----0-|--4-------2----|--0-----0-----0|--0-----0-----0|
G|0-----0-----0---|4-------2------|0-----0-----0--|0-----0-----0--|
D|----------------|---------------|---------------|---------------|
    Weary    of lies you're sending  home           so you


D|------0---------|0-----0-----0--|------------5--|------5-----5--|
B|1-----------1---|1-----1-----0--|5-----5-----5--|5-----5-----5--|
G|----0-----0-----|----0-----0----|----5-----5----|----5-----5----|
D|--2-----2-----2-|--2-----2-----0|--5-----5-----5|--5-----5-----0|
G|2-----2-----2---|2-----2-----0--|5-----5-----5--|5-----5-----5--|
D|----------------|---------------|---------------|---------------|
  sign all the papers in the family name, you're sad and you're
  sorry but you're not ashamed, Little


D|4-----4-----4---|------0-------0|---------------|0--------------|
B|3---3-3---3-3---|3-------1------|1-----0-----0--|0--------------|
G|----4-----4-----|----0-------0--|----0-----2----|---------------|
D|--0-----0-----0-|--4-------2----|--0-----0-----0|---------------|
G|0-----0-----0---|4-------2------|0-----0-----0--|0--------------|
D|----------------|---------------|---------------|---------------|
    Green                     have a happy ending    Just a Little


D|------5--------|------3-----3--|----------0----|------0--------|
B|5-----5-----5--|3-----3-----3--|0-----1-----1--|1---0-0-----0--|
G|----5-----5----|----3-----3----|----0----------|----------0---0|
D|--5-----5-----5|--3-----3-----3|--0-----0-----0|--0------------|
G|5-----5-----5--|3-----3-----3--|0-----0-----0--|0---0-0--------|
D|---------------|---------------|---------------|---------------|
  Green  like the color when the spring is born       There'll be


D|------0--------|------0--------|0--------------|0--------------|
B|3-----------3--|1-----------1--|1-----0-----0--|0--------------|
G|----0-----0----|----0-----0----|----0-----2----|---------------|
D|--4-----4-----4|--2-----2-----2|--0-----0-----0|---------------|
G|4-----4-----4--|2-----2-----2--|0-----0-----0--|0--------------|
D|---------------|---------------|---------------|---------------|
  Crocuses to bring to school tomorrow             Just a Little


D|------5--------|------3-----3--|----------0----|------0--------|
B|5-----5-----5--|3-----3-----3--|0-----1-----1--|1---0-0-----0--|
G|----5-----5----|----3-----3----|----0----------|----------0---0|
D|--5-----5-----5|--3-----3-----3|--0-----0-----0|--0------------|
G|5-----5-----5--|3-----3-----3--|0-----0-----0--|0---0-0--------|
D|---------------|---------------|---------------|---------------|
  Green  like the nights when the northern lights perform. There'll be


D|------0--------|------0--------|------0-------0|---------------|------0--------|
B|3-----------3--|1-----------1--|3-------1------|1-----1-----1--|1-----------1--|
G|----0-----0----|----0-----0----|----0-------0--|----2-----2----|----2-----2----|
D|--4-----4-----4|--2-----2-----2|--4-------2----|--0-----0-----0|--0-----0-----0|
G|4-----4-----4--|2-----2-----2--|4-------2------|0-----0-----0--|0-----0-----0--|
D|---------------|---------------|---------------|---------------|---------------|
  icicles and birthday clothes, and sometimes there'll be sorrow



D|------0---------|----0-------0--|---------------|----0-------0--|
B|0-----------0---|0H1---1--------|0-----0-----0--|0H1---1--------|
G|----2-----2-----|----------2----|----2-----2----|----------2----|
D|--0-----0-----0-|--------------0|--0-----0-----0|--------0-----0|
G|0-----0-----0---|0-----0-----0--|0-----0-----0--|0-----0-----0--|
D|----------------|---------------|---------------|---------------|


D|----------------|----0----------|----0-------1--|---------------||
B|0-----0-----0---|0H1---1-----1--|0H1---1--------|----0----------||
G|----2-----2-----|----------2-2--|---------------|---0-----------||
D|--0-----0-----0-|--------0-0-0-0|---------------|--0------------||
G|0-----0-----0---|0-----0--------|0-----0--------|-0-------------||
D|----------------|---------------|---------------|0--------------||