Chordproc: Babyshambles : Down In Albion

Babyshambles : Down In Albion


  1. La Belle Et Las Bete
  2. Fuck Forever
  3. A'Rebours
  4. The 32nd Of December
  5. Pipedown
  6. Sticks And Stones
  7. Killamangiro
  8. 8 Dead Boys
  9. In Love With A Feeling
  10. Pentonville
  11. What Katy Did Next
  12. Albion
  13. Back From The Dead
  14. The Loyalty Song
  15. Up The Morning
  16. Merry Go Round

La Belle Et Las Bete

RIFF
e|-----------------------------------------------------------------|
b|-----------------------------------------------------------------|
G|-----------------------------------------------------------------|
D|------------------------------------4-3-4/5-4-3-4---4-3-4/5-4-3-4|
A|---4-3-4/5-4-3-4---4-3-4/5-4-3-4--2---------------2--------------|
E|-2---------------2-----------------------------------------------|
VERSE
F#m
I tell you a story but you won't listen, Its about a nightmere steeped in tradition,
Bm
Its a story of a coked up pansy, Who spends his nights at a flight of fancy
Verse 2
Met two fellas over gin and mixers, They talked for a while and soon got the picture, One was a suped up soho mincer, The other was a pikey with a knowledge of scripture,
Am
Fm
Then the conversation turned evil (evil)
Am
Fm
Talked and talked and talked about people What did you do to so many people?
MAIN RIFF
F#m
Stumbled let out of the boozer Three short shots to the leg ah whos a fusileer
Bm
Oh I've seen it in another light With a half ton smile and was looking all right
Bm
C
Bm
C
Bm
C
That girl's a-way ahead of the game
Bm
C
Way ahead of the game
Bm
C
Way ahead of the game
PRE-CHORUS
Bm
G
F#
Bm
G
F#
You turned your back upon her one too many times
Bm
G
F#
Bm
G
F#
Spent all her hard earned money just getting high She sang
CHORUS
E
E
C
B
Is she more beautiful Is she more beautiful Is she more beautiful Than Me?
Bm
C
Bm
C
Verse chords and again only one verse
Pre-chorus
Bm
G
F#
Bm
G
F#
You turned your back upon her one too many times
Bm
G
F#
Bm
G
F#
Spent all her hard earned money just getting high She sang
CHORUS
Main Riff
Bm
C
Bm
C
Then Then Bom dada da da
Back to the riff
First verse again- thats with 2 verses.
Bm
C
That girl's a-way ahead of the game
Bm
C
Way ahead of the game
Bm
C
Way ahead of the game
PRE-CHORUS
Bm
G
F#
Bm
G
F#
You turned your back upon her once too many times
Bm
G
F#
Bm
G
F#
Spent all her hard earned money just getting high She sang
CHORUS till the end.



Fuck Forever

Intro
Bm
G
D
F#
x3
D
C
Bm
What Im saying, what I'm saying
Verse 1
A7
Whats the use between death and glory?
A7
I cant tell between death and glory?
Em
Happy endings, no, they never bored me
Em
Happy endings, they still don't bore me
A7
But they, they have a way
A7
They have a way to make you pay
Pre-Chorus
Bm
G
D
And to make you toe the line
F#
Bm
G
D
Sever the ties
F#
Bm
G
D
Because I'm so clever
F#
Bm
G
D
But cleverly wise
Chorus
Bm
G
D
Fuck forever
F#
Bm
G
D
If you don't mind
F#
Bm
G
D
Oh fuck forever?
F#
Bm
G
D
F#
If you don't mind, don't mind, I don't mind, I don't mind
Verse 2
A7
Oh whats the use between death and glory?
A7
I cant tell between death and glory?
Em
New labour and Tory
Em
Pergatory and no happy families
D
C
Oh, so what I'm saying
Bm
What I'm saying
D
C
No, its not the same
Bm
Its not supposed to be the same
A7
You know about that way
A7
The way they make you pay
Pre-Chorus
Bm
G
D
And to make you toe the line
F#
Bm
G
D
Sever the ties
F#
Bm
G
D
Because I'm so clever
F#
Bm
G
D
But cleverly wise
Chorus
Bm
G
D
Fuck forever
F#
Bm
G
D
If you don't mind
F#
Bm
G
D
Oh fuck forever?
F#
Bm
G
D
F#
If you don't mind, don't mind, I don't mind, I don't mind
Verse 3
And the way they make you toe the line Sever the ties Oh, you're so clever, your so clever But you're not very nice So fuck forever If you don't mind Oh I'm stuck forever In your mind, your mind, your mind
Bridge
A7
But have you heard about that way,
A7
To make you feel I should soon make you pay
Pre-Chorus
Bm
G
D
And to make you toe the line
F#
Bm
G
D
Sever the ties
F#
Bm
G
D
Because I'm so clever
F#
Bm
G
D
But cleverly wise
Chorus
Bm
G
D
Fuck forever
F#
Bm
G
D
If you don't mind
F#
Bm
G
D
Oh fuck forever?
F#
Bm
G
D
F#
If you don't mind, don't mind, I don't mind, I don't mind
Verse 4
And to make you toe the line, line I Sever the ties Oh well I never Sever the ties And fuck forever If you don't mind See I'm stuck forever Oh I'm stuck n your mind, your mind, your mind
Outro
I never played this on the radio I never played this on the radio



A'Rebours

INTRO
e|-0-0-0-0-0--2-3-2-0-------------|
B|-0-0-0-0-0--3-3-3-0-----4-5--7--|
G|-1-0-1-0-1--2-2-2-0-----4-5--7--|
D|-1-0-2-0-2--0-0-0-0-x3--4-5--7--|
A|-2-0-2-0-2--------------2-3--5--|
E|-0-0-0-0-0----------------------|
E|-12-11-7-5-4-----12-11-7-5-2--3---|
B|--9--9-9-5-5------9--9-9-5-4--5---|
G|----------------------------------|
D|----------------------------------|
A|----------------------------------|
E|----------------------------------|
C#m
B
C#m
B
You sent for me
A
E
B
I was knock knock knocking on death's door
C#m
B
C#m
B
You ignore, adore, and a'rebour me
A
E
B
You leave me washed up begging for more
B
C#m
Ebm
B
If you really cared for me
C#m
G#m
Ah you'd let me be
C#m
G#m
You'd set me free
G
F#
But what you robbed me of is my
B
C
D
Poor me, is my liberty
C#m
B
C#m
B
The curtain was calling
A
E
B
Blew away and die boy
C#m
B
C#m
B
In the mirror bawling
A
B
If you want it so much you can have it all
B
C#m
Ebm
B
If you really cared for me
C#m
G#m
Christ knows she'd let me be
C#m
G#m
You'd set me free
F#
B
C
D
I'm too polite to say...
F#m
E
B
I defy you all
E
A
You know twice as much as nothing at all
A
Bb
B
It's still nothing at all
F#m
E
B
Ah, you can't define us all
E
A
The Tides are now turned and hammered it all
A
Bb
B
Hammered it all
Intro (over this)
Ah, no, ah no, ah no Arebours...
E
G#m
F#m
B
C
e|------4-------------2--------------|
b|--9---4-------------2-------4---5--|
G|--9---4-4--4ho6--4--2-side-4-4-5-5-|
D|--9-----4ho6----6------------------|
A|-----------------------------------|
E|-----------------------------------|
E
G#m
F#m
B
C
C#m
C
E
A
B
e|-A-A-----x-x----------------------4----3--------0-2-|
B|-A-A9--9-x-x-4--4---2--2---4-4s5---5-5----12-12-2-4-|
G|-A-A-9--9x-x--4--4---2--2--4-4s5-----5---12-12--2-4-|
D|-A-A-----x-x------------------------------------2-4-|
A|-A-------x--------------------------------------0-2-|
E|-A-------x------------------------------------------|
E
G#m
We've been running round this world too much, girl
F#m
Pretending not to see
B
C
What's thrilling me, is killing me
E
Oh no, I think I understand
G#m
What I misunderstood before
F#
How your love gives me so much more
B
C
I am free again, I can see again..
C#m
C
But if, if I should fall
E
Would you vow today to pay tomorrow
A
B
The fuck off big debt I owe to sorrow...
Intro



The 32nd Of December

Intro
Keyboard plays C and G 4 times
Then guitar comes in:
e|-------8-7-5-3--5po3--|
b|----------------------|
G|-4-5-9----------------|
D|-5-5-9----------------|
A|-5-3-7----------------|
E|-3-3-7----------------|
Verse
G
C
GC
G
C
G
C
Speak I don't talk about it
G
C
G
C
G
C
G
C
Speak don't want to know all about it
Em
C
D
Arguing with you's no good
Em
C
D
You'll be nobody's fool but you'll almost speak...
G
C
GC
G
C
G
Speak I don't talk about it
Chorus
Em
Bm
Am
Don't talk about the 32nd of December
Bm
D
Em
Oh, thats the night I'm trying so hard to forget
Bm
Am
All you do is you come around and I remember
C
C#
D
Remeber what I try, oh that I, what I....
Verse
Still you don't talk about it Still don't wanna know all about it Anybody want tea? Anybody, thank you, ah fuck me But don't speak And don't talk about it
Chorus
Don't talk about the 32nd of December Thats the night im trying so hard to forget So all you do is you phone me, and I remember Remember what I try, that I, what I...
Verse
Still you don't talk about it
Breakdown
Em
Well it was you not I
Am
It was such a stickler for manners
Em
So don't you say goodbye
Am
No, not to a good old friend,
Em
Am
Ah goodbye, goodbye goodbye
Em
Am
C#
D#
I get by, please I get by And get by Argggh, so what you running from?
Verse
Still,don't talk about it Still, don't want to know about it Ah if they ask me nicely nicely then I'll go
Em
But they never do
Am
So I'll never...



Pipedown

Riff
e|--0-0-0-0-7-7-7-7-0---0---0---0--------0---0---0---0---0---0---0-----0------|
b|-s5-5-5-5-5-5-5-5-2-2-2-2-3-3-3-3-----s5-5-5-5-7-7-7-7-8-8-8-8-10-10-10-10--|
G|----------------------------------x3----------------------------------------|
D|----------------------------------------------------------------------------|
A|----------------------------------------------------------------------------|
E|----------------------------------------------------------------------------|
Chorus
E
C
A
Oh paddy put the pipe down
E
C
A
If you got the right sound
E
C
A
If isn't not alright son
E
C
A
Oh la-lie, oh my
Verse
e|-7-7/8\7-7/8\7-7/8\7-7/8\7-----------------------|
b|-5-5/6\5-5/6\5-5/6\5-5/6\5-5-----5-----3333-3333-|
G|---------------------------4h5p4-4h5p4-2222-3333-|
D|-------------------------------------------------|
A|-------------------------------------------------|
E|-------------------------------------------------|
e|-7-7/8\7-7/8\7-7/8\7-7/8\7-5-6-|
b|-5-5/6\5-5/6\5-5/6\5-5/6\5-5-6-|
G|---------------------------6-7-|
D|---------------------------7-8-|
A|---------------------------7-8-|
E|---------------------------5-6-|
Chorus
Verse 2
e|-7-7/8\7-7/8\7-7/8\7-7/8/7-5-5-3-5--5-5-3-5--5-5-3-5-66666666-|
B|-5-5/6\5-5/6\5-5/6\5-5/6/5-5-5-3-5--5-5-3-5--7-7-5-7-88888888-|
G|---------------------------6-6-4-6--6-6-4-6--7-7-5-7-88888888-|
D|---------------------------7-7-5-7--7-7-5-7--7-7-5-7-88888888-|
A|---------------------------7-7-5-7--7-7-5-7--5-5-3-5-66666666-|
E|---------------------------5-5-3-5--5-5-3-5-------------------|
CHORUS
RIFF
La la-la la-la lalalala-la
CHORUS x2
End
e|-7h8p7-|
b|-------|
G|-------|
D|-------|
A|-------|
E|-------|
Do your sums Work out a fairer way If it comes undone Just paper over the cracks And there ain't no turning back Oh on The Sun They make you out to be a tearaway Comes undone Ahh I just spoke to matt Pat, they want the money back Ah put the pipe down If you got the right sound If it's the right sound Oh my, oh my Do your sums Work out a fairer way Can you play no fun Oh what you think of that Cause they wanted but... You better pipe down You got the right sound Put the pipe down Oh my, oh my, oh my Na na-na na-na...



Sticks And Stones

Bm
G
Theres a tale
E
F#
Tale I will tell
Bm
G
Blood lust after oh cups of tea
E
F#
And a many, many things I do so well
C
D
G
Oh you know that's the end
B
That's the end so far away down
Use Variations of these chords
e|---3--7--12---2--7--
b|---5--8--12---3--7--
G|---4--9--12---4--7--
D|---5--9-------4--9--
A|------7-------2--9--
E|-----------------7--
They said that I was as good as dead And there was hope, but not for us together My friend, my only friend
C
D
G
Oh well you know that that's the end
B
And that's the end so far away down Skip... fame on the run Don't look back into the motherfucking sun, no
C
D
G
Oh well you know that that's the end
B
And that's the end so far away down Sticks and stones May break my bones Oh but your words They really kill me Sticks and stones May break my bones Sticks and stones may break my bones Oh but your words they really hurt me
C
D
G
And there you know that's the end
B
But there can never be and end
Interlude 1
e|--12~~-----||-----------------------7------------------------10-10-10-8-7---|
b|------12~~-||-7ho8po7ho8.../10/8po7----7ho8po7ho8.../10/8po7----------------|
G|-----------||---------------------------------------------------------------|
D|-----------||---------------------------------------------------------------|
A|-----------||---------------------------------------------------------------|
E|-----------||--------------------------------------------------------------7|
e|--12~---12----15---12ho15po12...--------------------------------------------|
b|--12~-----12---------------------12ho15po12...------------------------------|
G|--12~-------12---------------------------------12-14-12---------------12----|
D|--14~---------------------------------------------------14-12-------14--12--|
A|-------------------------------------------------------------14-12-12----14-|
E|------------------------------------------------------------------15------12|
Freestyle over these notes
OUTRO (And somewhere in the middle too)
e|---------------------------------------------------|
B|---------------------------------------------------|
G|--------------------4-4-4---9-10-9-----------------|
D|--------------------4-4-4----------10-9------------|
A|-7-7-7/5-5-5/3-3/2--2-2-2----------------10-9--7---|
E|---------------------------------------------------|
The Whistle Lower key for verses
e|---15------------------14-||----3--------------2---||--2ho3po2ho3po2ho3po2--|
b|-----17--------------15---||------5----------3-----|
G|-------16---14-16-16------||--------4--2-4-4-------| this is played at the end
D|--------------------------||-----------------------| of "the Whistle"
A|--------------------------||-----------------------|
E|--------------------------||-----------------------|



Killamangiro

Intro
E
17-17-17-17-17-15-15-15-12-12-12
B
17-17-17-17-17-15-15-15-12-12-12
G
B
C
D
Ooh oh oh ooh ooh oooooh
G
B
C
D
Ooh oh oh ooh ooh
Verse
G
C
Why would you pay to see me in a cage?
G
C
And why would you pay to see me in a cage?
C
Some men call the stage
Em
B
Listen now I have gone
C
You will know
Cm
G
G
I was the only one that would have died
G
G
B
B
B
B
C
C
C
C
D
D
D
D
What was wrong in the eyes of the unwell and unwise
Chorus
G
B
C
D
And I killed a man for his giro today
G
G
G
G
B
B
B
B
C
Wasn't very gay, I didn't mind
C
C
C
D
D
D
D
I was a money man anyway
G
B
C
D
Killed a man for his giro today
Pre-Verse
G
C
Verse
G
C
Why, would you pay
G
C
Why, would you pay
C
To see me in a cage It's all across the stage
Em
And know
B
When the night has come
C
You might say
D
G
G
I was not the only the one who would've died
G
G
B
B
B
B
C
C
C
C
D
D
D
D
What was wrong in the eyes of the cruel and unwise
G
B
C
D
G
And I killed a man for his giro today
C
On the off chance that you listenin To the radio
G
C
I thought you might like to know you broke my heart
G
Can only sadden up or hedge your bets
C
Or take a chance and never get you again
G
All my ties, time and time
C
I keep on trying hard not to try too hard
G
When I forgive, I won't forget
C
To killing time, so I'm better now
G
I don't need it...
C
Anything that makes you, feel hate
G
Can do without hate
C
Now I believe in love
Em
B
Now I have gone
C
Oh yeah, I will pay
Cm
For everything you've done
G
G
What was wrong
G
G
B
B
B
B
C
C
C
C
D
D
D
D
In the eyes of the unwell and unwise
G
B
C
D
G
G
G
G
And I killed a man for his giro today
B
B
B
B
C
C
C
C
D
D
D
D
Ohhh ohhh ohhhh
G
B
C
D
Ohhh ohhh ohhhh



8 Dead Boys

A
C
Sit right down cause you're a friend
G
D
You know there ain't too many left of them
A
C
G
F
/e
You said I want love, I want it all
Dm
F
G
You look better now than last time But you still look better from afar The life that you wanted was not in store You're being the dark horse again Hello, Hello Hello, My Love Hello, My Love Hello, My Love Stop your moaning and I'll give you a taster They give you and line and they call you a waster Give you a line, oh what a waster So don't! You say you will or you won't Do or you don't Do or you don't Do or you don't Cause you look better now than the last time But you're still no better than before The life that you wanted wasn't in store You're being the dark horse again Hello, Hello Hello, My Love Hello, My Love Hello, My Love
A
C
When it suits you, you're a friend of mine x15 Cause you look better now than the last time But you're still no better than before The life that you wanted wasn't in store You're being the dark horse again Cause you look better now than the last time But you're still no better than before The life that you wanted wasn't in store You're being the dark horse again



In Love With A Feeling

Intro
C
C+
x2
C
They would if they could, but they can't
Dm
So if they talk like they could
G*
Are you going to heed a word they say All I'm trying to say was
C
Bm
Bb
A
I'm in love with a feeling
Dm
C#m
C
G
I know that it shows
F#7
F7
E
Yes I'm in love with a feeling
A7
And I don't care who knows
D
There's a very odd man over there I don't mean to alarm you He's by the stairs
G
G#
No I don't mean to alarm you
C
He's swanning around all over town
Dm
Lost for no meaning, or no feeling
G*
Are you going to heed a word they say No, all I try to say was
C
Bm
Bb
A
I'm in love with a feeling
Dm
C#m
C
G
I know that it shows
F#7
F7
E
Yes I'm in love with a feeling
A7
And I don't care who knows
D
There's a very odd man over there I don't mean to alarm you He's by the stairs
G
D
G
G#
No I don't mean to alarm you
C
I'm still waiting for you to show me fire
C+
Oh how's your fever
F
Like an open book
Fm
Oh you can read me
C
C+
C
C+
Ohhh la la la la la Ohhh la la la la la
C
They would if they could, but they can't
Dm
So if they talk like they could
G*
Are you going to listen to a word they say All I'm trying to to say was
C
Bm
Bb
A
I'm in love with a feeling
Dm
C#m
C
G
I know that it shows
F#7
F7
E
Yes I'm in love with a feeling
A7
And I don't care who knows
F#
F#
Because of his hob knob
F#
F#
Oh Ah, Ohh la la, I think love was a dirty word
F#
F#
Love all the time
F#
Only in a friendly way
F#
F7
E
A
Not too friendly, not too friendly



Pentonville

D
C
Bm
A
Indian, Chinaman down from Vietnam And all the people from the Carribbean English, Scottish and Irish man We just come together and sing this a one Cal man and woman, black and white, Banned to survival have to put up a fight, so
F#m
So A wing, B wing, C wing and G Wing Come help us sing A wing, B wing, C wing and G Wing Come help us sing Again
F#m
So A wing, B wing, C wing and G Wing Come help us sing A wing, B wing, C wing and G Wing Come help us sing With me
Bm
They're rough In Pentonville, tough Get rough Wicked and tough Yeah rough Pentonville tough It's rough Wicked and rough now
Bm
A
Everyday, it's the same
Bm
A
People can't get better
Bm
A
No they can't get tamed
Bm
A
And black up the heads of the sick and the lame
Bm
A
All the same who can't get retained
Bm
A
Some men jump out of their brains
Bm
A
Cause they can't take the pressure
Bm
A
And can't take the pain
Bm
A
When they see the life, it go down the drain
Bm
E
In Pentonville it's a different ball game
Bm
It's rough Pentonville tough It's rough Wicked and tough Yeah rough Pentonville tough It's hard Wicked and rough now
F#m
So A wing, B wing, C wing and G Wing Come help us sing A wing, B wing, C wing and G Wing Come help us sing
Bm
It's rough Pentonville tough It's hard Wicked and rough Yeah rough Pentonville tough It's hard Wicked and rough now
Bm
A
This is this the libertist, santy
Bm
A
Me off me head (e) alot featuring Pete Doherty
Bm
A
In the pentonville the say they coud look ghouly
Bm
A
Them the youth now say they touch our free weed
Bm
A
Heres the capt now, with boot he learn
Bm
A
Born the youth now rerasta the route,
Bm
A
Born the youth with a jazzy route
Bm
E
Am a rasta re-route now
Bm
It's rough Pentonville tough It's hard Wicked and rough Yeah rough Pentonville tough It's hard Wicked and rough now
Bm
A
This is this the libertist, santy
Bm
A
Me off me head (e) alot featuring Pete Doherty
Bm
A
In the pentonville the say they coud look ghouly
Bm
A
Them the youth now say they touch our free weed Pete sings
Bm
A
(Well nothing to see but a poxy celebrity)
Bm
A
(A man without a care is just who you wanna be)
Bm
A
(They stand away as they lock him in a cage,)
Bm
E
(They got your body but they cant get your mind,)
Bm
Get Rough (Fighting for the rough tough love, get rough) Pentonvie tough Everyday, it's the same People can't get better No they can't get tamed And black up the heads of the sick and the lame Some men jump out of their brains Cause they can't take the pressure Cant take the pain When they see the life, it go down the drain In Pentonville it's a different ball game So A wing, B wing, C wing and G Wing Come help us sing A wing, B wing, C wing and G Wing Come help us sing Because it's rough Pentonville tough It's hard Wicked and rough Yeah tough Pentonville rough It's hard Wicked and rough
Chorus Freestyle
e|--7----------------------------|
b|--7----------------------------|
G|--7-----7---7-9-9b-9po7---7----|
D|--9-9-9-7-9-7-9-9b-9po7-9-7-9--|
A|--9-9-9---9-------------9---9--|
E|--7-7--------------------------|



What Katy Did Next

Verse
F
C
Dm
There's a lesson I have learnt
Bb
A
Dm
G
C
If you play with fire you will get burnt
F
C
Dm
Hell hath no fury
Bb
A
Dm
Like woman scorned
G
I'll tell you my story Make you wish you never, wish you
C
Wish you never never, wish you never been born
Fm
Cm
Fm
Cm
I may never learn, you never know
Fm
Cm
Fm
Cm
Bm
Bmb
I may live and learn you never know
Cm
I may crash and burn, oh no
Bmb
A
I may take my turn
D
A
Bm
A
Bm
A
If you love her, then tell her you love her and
D
A
Bm
A
Bm
A
You could be kissing her soon
D
A
Bm
A
Bm
A
If you need her, oh, tell her you need her and
D
A
Bm
A
Bm
A
You won't be missing her soon
G
Oh, but for a love to be true
Bm
B
It must come from her too



Albion

e|---3-3-3-3-3-3-3-3-3-0-0-0-0-1ho0-0ho1-0-0--0-3-3-3--3-3-|
b|---1-1-1-1-1-1-1-1-1-1-0-1-1-3--3-3--3-1-1--1-3-3-3--3-3-|
G|---0-0-0-0-0-ho2-2-2-2-2-2-2-2--2-0ho2-2-0ho2-0-0-0--0-0-|
D|-------2-2-2-ho3-3-3-3-3-3-3-0--0-0--0-2-0ho2-0-0-0--0-0-|
A|--3----3-3-3---------------------------0-0--0-2-2-0ho2-2-|
E|----------------------------------------------3-3-3--3-3-|
C
F
Down in Albion they're black and blue
C
G
But we don't talk about that
C
F
Are you from round here? How do you do?
C
G
I'd like to talk about that Talk over gin in teacups and leaves on the lawn Violence at bus stops and a pale thin girl with eyes forlorn Oh gin in teacups and leaves on the lawn Violence in dole queues and a pale thin girl behind the check-out
F
C
G
But if you're looking for a cheap sort that's in false anticipation
F
C
/g
I'll be waiting in the photo booth at the underground station
C
F
So, come away, won't you come away
G
We could go to,
G
Deptford, Catford, Watford, Digbeth, Mansfield Anywhere in Albion Yellowing classics and cannons at dawn Coffee wallows and pith helmets and an English sun Reebok classics and cannons at dawn Terrible warlords, good warlords, and oh that English sun But if you're looking for a cheap tart that's glint with perspiration Theres a four-mile queue outside the dissused power station Oh come away, oh say you'll come away We'll go to Sathed, Senford, Wolfard, wimble, Newcastle But if you're looking for a cheap tart that's glint with perspiration Theres a four mile queue outside the dissused power station Oh come away, oh say you'll come away We'll go to Bedstown, Oldham, Nutville, Walden, Bristol Anywhere in the Albion



Back From The Dead

Intro
Bm A* Em Em* ? F#m
e|---2-2-2-2-2-2-2--2-2-2-2-2-5-2-2--3-3-3-3--2-2-2-2--2-0-2-0--2-2-2-2-|
b|---3-2-3-5-3-2-3--3-3-2-3-5-3-2-3--5-5-5-5--5-5-5-5--0-0-0-0--2-2-2-2-|
G|---4-4-4-2-4-4-4--2-2-2-2-2-2-2-2--4-4-4-4--4-4-4-4--0-0-0-0--2-2-2-2-|
D|---4-4-4-4-4-4-4--4-4-4-4-4-4-4-4--5-5-5-5--5-5-5-5--0-0-0-0--4-4-4-4-|
A|---2-2-2-2-2-2-2--0-0-0-0-0-0-0-0--------------------0-0-0-0--4-4-4-4-|
E|--------------------------------------------------------------2-2-2-2-|
e|-----------------0----------| b|--2//5---3-2-0-0---3-2------| G|-----------------------2-2--| D|----------------------------| I heard it said You had come back from the dead You were playing so fine Scooping up the soul of the wine Now courage my boy When they look you in the eye Try not to look too scummy If you need some money And you want their money Now I know... This ain't no happy place to be You know they're nice around me You know they're nice about me And everyone agrees About what's won in a year from here, my friend Promises, promises... You've heard it all before But nobody ever Ever get me more...
e|--2-2--2---------| |---9---12--9---10--|
b|--3-3--3---------| |---10--13--10--11--|
G|--4-4--4---------| play |---11--14--11--12--|
D|--4-2ho4---------| twice |---11--14--11--12--|
A|--2-2--2-5-4-2-0-| |---9---12--9---10--|
E|-----------------| |-------------------|
Oh yes courage my boy When you look them in the eye That they laugh if they try to be funny All along... Belong You're still my son And coin my words Oh it's absurd how you get so Very old, man Typical tan Took me in hand To ... ... hour Banged or bruised



The Loyalty Song

Intro
e|--x--x------|
b|--x--x--3---|
G|--x--x--0---|
D|--x--x--0---|
A|--x-----2---|
E|--x---------|
G
D
C
X4
Riffs played over the verses
e|--3--3-3--3-2-0---------------------|
b|----------------0ho1-1-1-1po0-------|
G|------------------------------2po0--|
D|------------------------------------|
A|------------------------------------|
E|------------------------------------|
e|------------10----8---------------x-10--8---8---8--|
b|--/12-12-----10--8-8-8---/12-12-x-x-10--8----8-8---|
G|--/12--12--11----9--9-9--/12-12-x-x-11--9-----9----|
D|--/12--------------------/12-12-x------------------|
A|---------------------------------------------------|
E|---------------------------------------------------|
Ah, tell me
G
D
What did I dream?
C
Cause nothing's as it seems
G
D
C
On the way back down, for me
G
D
What did I dream?
C
Cause nothing's as it seems
G
D
C
On the way back round, for me
C
Nothing's gonna keep me from my
G
What did I dream?
C
No one's gonna keep me from my
G
D
C
What did I dream?
G
D
C
G
D
We're on the one road
C
Maybe the wrong road
G
D
C
It's the road to fuck knows where
G
D
We're on the one road
C
Maybe the wrong road
G
D
C
But we're together now so I don't care
C
Nothing's gonna keep me from my
G
What did I dream?
C
No one's gonna keep me from my
Bmb
No one'll fucking keep me from my
C
No one's gonna keep me from my
G
D
C
What did I dream?
G
D
C
What did I dream?
G
B
And if I confide in you today
E
C
B
A
I know you don't believe a single word I say
D
I found solace in the flood
G
F#
F
E
And everybody knew that I would
A
Cause I'm alright
D#
D#
D
And there's a slight crack in my chimney So tell me
G
D
What did I dream? What did I dream?
C
Nothing's as it seems
G
D
C
On the way back round for me
G
D
C
x6
G
D
C
What did I? What did I? What did I? What did I dream?



Up The Morning

D
Dm
Up the morning, up, up the morning
E5
A5
E5
A5
Ohhh Ohhh
E5
A5
Em
F#m
G*
Ohhh Ohh
D
C#
Everytime I see your face
F#m
G*
It makes me sigh, and makes me trace
F#m
Em
My shadows in blood on wall
F#m
G*
A
(Not to the landlord's taste I know)
D
C#
But I see your face
C#7
F#m
It makes me cry, Always
G*
Gmaj7
E5
F#5
G5
A5
Ooh ooh ohh ah ah ah
D
C#m
And if I, if I could go
C#
C#7
Back in time
D
C#
And if I, if I could go
F#m
Back in time I would
G
A
Asus4
G
Go to show, were I did not show
A
Asus4
F#m
G
Gsus4
Oh What was I supposed to do?
F#m
G
A
What's a boy supposed to, supposed to do?
D
Dm
Up the morning, up, up the morning
D
Dm
Up the morning, up, up the morning
D
Dm
Up the morning, up, up the morning
D
Dm
Up the morning, up, up the morning
D
Dm
Up the morning, up, up the morning



Merry Go Round

INTRO RIFF
e|--5--5-5-7-6-5---5--5-5-7-6-5-7-6-5-|
b|--5--5-5-5-5-5---5--5-5-5-5-5-5-5-5-| x2
G|--6--6-6-6-6-6---6--6-6-6-6-6-6-6-6-|
D|------------------------------------|
A|------------------------------------|
E|------------------------------------|
D* xxx77A
D** xxx779
Am* xxx557
Am xxx555
VERSE 1
D*
D**
You have always been thinking of her
Am*
Am
You're in love and you don't know what to say
Am*
Am
But I saw her at the fair, she feels the same way
E
A
She was married by the merry-go-round
Back to Intro riff
VERSE 2 (same chords)
The merry-go-round How merrily we go round How merrily we go round
A7
The merry-go-round
D
A7sus4
D
He was the first one of the day
A7sus4
D
He was the last one of the night
A7sus4
D
Oh hold me tight, hold me tight
D
A7sus4
D
They said you were wrongened
A7sus4
D
But I can see in your eyes
A7sus4
D
How you are gentle and wise
F
And you had the good stuff
A7
D
A7sus4
D
A7sus4
Oh there's a parade of girls outside
F
A7
That boy's so shy
D
A7sus4
D
A7sus4
Why'd you punch out his lights?
I don't have the lyrics for the next bit
Dmaj7sus4? (000223)
D
You should get some
Dmaj7
Sun on your face
D7
We've been sitting like an
G
G/b
E
Lord in the bath for days
A
Its getting sold and
D
Dmaj7sus4
I don't even know you
D
Dmaj7
We get away with doing the little that we can
D7
G
G/b
We mustn't take it too far my friend
E
A7
The Albion needs every man woman and child she can get her hands on