Chordproc: Beatles : Abbey Road

Beatles : Abbey Road


  1. Come Together
  2. Something
  3. Maxwell's Silver Hammer
  4. Oh! Darling
  5. Octopus's Garden
  6. I Want You (She's So Heavy)
  7. Here Comes The Sun
  8. Because
  9. You Never Give Me Your Money
  10. Sun King
  11. Mean Mr. Mustard
  12. Polythene Pam
  13. She Came In Through The Bathroom Window
  14. Golden Slumbers
  15. Carry That Weight
  16. The End
  17. Her Majesty

Come Together

e|------------1--------------|
B|------------1--3-----------|
G|------0h2------------------|
D|0--0-----------------------| x4
A|---------------------------|
E|---------------------------|
Dm
Here come old flat top, He come grooving up slowly,
Dm
He got Joo Joo eyeball, He one holy roller
A7
He got Hair down to his knee;
G7
Got to be a joker, he just do what he please. He wear no shoe shine, he got toe jam football He got monkey finger, he shoot co-ca cola He say, "I know you, you know me." One thing I can tell you is you got to be free
Bm
Come together,
G
Right now, over me He bag production, He got wal-rus gumboot He got O-no sideboard, He one spinal cracker He got feet down below his knee Hold you in his armchair, you can feel his disease Come together Right now, over me He roller coaster, he got early warning He got muddy water, He one Mo-jo filter He say, " One and one and one is three." Got to be good looking 'cause he so hard to see Come together Right now, over me



Something

Intro
F
Eb
G
e|---------------------------------|
B|---10--13br-10-11-12-13----------|
G|---------------------------------|
D|---------------------------------|
A|---------------------------------|
E|---------------------------------|
C
Cmaj7
Something in the way she moves
C7
F
/f
/e
Attracts me like no other lover
D7
G
Something in the way she woos me
Am
Am(maj7)
I don't wanna leave her now
Am7
D9
You know I believe, and how
F
Eb
G
Somewhere in her smile she knows That I don't need no other lover Something in her style that shows me I don't wanna leave her now You know I believe and how
A
C#m/g#
F#m7
A/e
You're asking me will my love grow
D
G
A
I don't know, I don't know
A
C#m/g#
F#m7
A/e
You stick around now, it may show
D
G
A
I don't know, I don't know Something in the way she knows And all I have to do is think of her Something in the things she shows me I don't wanna leave her now You know I believe and how
F
Eb
G
C



Maxwell's Silver Hammer

Verse
D
B7
Joan was quizzical; studied pataphysical
Em
Science in the home.
A7
Late nights all alone with a test tube.
D
A
Oh, oh, oh, oh.
D
B7
Maxwell Edison, majoring in medicine,
Em
Calls her on the phone.
A7
"Can I take you out to the pictures,
D
A
Jo, oa, oa, an?"
Chorus
E7
But as she's getting ready to go,
A7
A knock comes on the door.
D
Bang! Bang! Maxwell's silver hammer
E7
Came down upon her head.
A7
Clang! Clang! Maxwell's silver hammer
Em
A7
D
Made sure that she was dead.
Instrumental
|
D
F#/c#
|
Bm
D7/a
|
G
|
D
|
Verse
D
B7
Back in school again Maxwell plays the fool again.
Em
Teacher gets annoyed.
A7
Wishing to avoid an unpleasant
D
A
Sce, E, E, ene,
D
B7
She tells Max to stay when the class has gone away,
Em
So he waits behind
A7
Writing fifty times "I must not be
D
A
So, o, o, o.."
Chorus
E7
But when she turns her back on the boy,
A7
He creeps up from behind.
D
Bang! Bang! Maxwell's silver hammer
E7
Came down upon her head.
A7
Clang! Clang! Maxwell's silver hammer
Em
A7
D
Made sure that she was dead. |
D
F#/c#
|
Bm
D7/a
|
G
|
D
|
Verse
D
B7
P. C. Thirty-one said, "We caught a dirty one."
Em
Maxwell stands alone
A7
Painting testimonial pictures.
D
A
Oh, oh, oh, oh.
D
B7
Rose and Valerie, screaming from the gallery
Em
Say he must go free
A7
The judge does not agree and he tells them
D
A
So, o, o, o.
Chorus
E7
But as the words are leaving his lips,
A7
A noise comes from behind.
D
Bang! Bang! Maxwell's silver hammer
E7
Came down upon his head.
A7
Clang! Clang! Maxwell's silver hammer
Em
A7
D
Made sure that he was dead. (Wha-oh-a-oh-a-oh) |
D
|
E7
| |
A7
|
Em7
A7
|
D
A
D
|
D
F#/c#
Bm
D7/a
G
D
A
D
Silver Ham-mer Man



Oh! Darling

Verse
E+
A
E
Oh darling please believe me
F#m
D
I'll never do you no harm
Bm7
E7
Be-lieve me when I tell you
Bm7
E7
A
I'll never do you no harm
Instrumental
A
D
A
E
Verse
E
A
E
Oh darling if you leave me
F#m
D
I'll never make it alone
Bm7
E7
Believe me when I beg you
Bm7
E7
A
Don't ever leave me alone
Instrumental
A
D
A
A7
Chorus
A7
D
F7
When you told me you didn't need me anymore
A
Well you know I nearly broke down and cried
B7
When you told me you didn't need me anymore
E7
F7(5)
E7
E+
Well you know I nearly fell down and died
Verse
E+
A
E
Oh darling if you leave me
F#m
D
I'll never make it alone
Bm7
E7
Believe me when I tell you
Bm7
E7
A
I'll never do you no harm
Interlude
A
D
A
A7
Belive me, darling
Chorus
A7
D
F7
When you told me you didn't need me anymore
A
Well you know I nearly broke down and cried
B7
When you told me you didn't need me anymore
E7
F7(5)
E7
E+
Well you know I nearly fell down and died
Verse
E+
A
E
Oh darling please believe me
F#m
D
I'll never let you down Oh believe me darling
Bm7
E7
Believe me when I tell you
Bm7
E7
A
I'll never do you no harm
Outro
A
D
A
Bb7
A7



Octopus's Garden

B
E
B
A
B
E
C#m
A
B
E
C#m
I'd like to be under the sea
A
B
In an Octopus's Garden in the shade
E
C#m
He'd let us in knows where we've been
A
B
In his Octopus's Garden in the shade
C#m
I'd ask my friends to come and see
A
B
An Octopus's Garden with me
E
C#m
I'd like to be under the sea
A
B
E
In an Octopus's Garden in the shade We would be warm below the storm In our little hideaway beneath the waves Resting our head on the sea bed In an Octopus's Garden near a cave We would sing and dance around Because we know we can't be found I'd like to be under the sea In an Octopus's Garden in the shade
A
F#m
D
E
A
F#m
D
E
A
B
We would shout and swim about The coral that lies beneath the waves Oh, what joy for every girl and boy Knowing they're happy and they're safe We would be so happy, you and me No one there to tell us what to do I'd like to be under the sea In an Octopus's Garden with you In an Octopus's Garden with you
A
B
E
B
E
In an Octopus's Garden with you



I Want You (She's So Heavy)

E7b9 x7676x or xx2131
E7/G# 4x243x
Intro
Dm
Dm/f
E7b9
C5
B5
Bb7
Aaug
Verse
Am7
I want you
Am7
I want you so bad
Am7
I want you
Am7
C
I want you so bad
D
F
It's driving me mad
G
E7/g#
Am7
It's driving me mad
Dm7
I want you
Dm7
I want you so bad, babe
Dm7
I want you
Dm7
F
I want you so bad
C
Bb
It's driving me mad
G5
G#5
A
E7b9
It's driving me mad
Bridge
E7b9
E7b9
Verse
Am7
I want you
Am7
I want you so bad, babe
Am7
I want you
Am7
I want you so bad
D
F
It's driving me mad
G
E7/g#
Am7
It's driving me mad
Dm7
I want you
Dm7
I want you so bad, babe
Dm7
I want you
Dm7
F
I want you so bad
C
Bb
It's driving me mad
G5
G#5
Am
E7b9
It's driving me mad
Bridge
E7b9
E7b9
Chorus
Dm
Dm/f
E7b9
C5
B5
Bb7
Aaug
She's so heavy
Dm
Dm/f
E7b9
C5
B5
Bb7
Aaug
Heavy, heavy, heavy
Solo
Am7
Am7
Am7
Am7
C
D
F
G
E7/g#
Am7
Dm7
Dm7
Dm7
Dm7
F
C
Bb
G5
G#5
Am
E7b9
E7b9
E7b9
Chorus
Dm
Dm/f
E7b9
C5
B5
Bb7
Aaug
She's so heavy
Dm
Dm/f
E7b9
C5
B5
Bb7
Aaug
She's so heavy, heavy, heavy
Am7
I want you
Am7
I want you so bad, babe
Am7
I want you
Am7
C
I want you so bad
D
F
It's driving me mad
G
E7/g#
Am7
It's driving me mad
Dm7
I want you
Dm7
You know I want you so bad, babe
Dm7
I want you
Dm7
F
You know I want you so bad
C
Bb
It's driving me mad
G5
G#5
A
E7b9
It's driving me mad
E7b9
Yeah
Chorus
Dm
Dm/f
E7b9
C5
B5
Bb7
Aaug
She's so
Outro
Dm
Dm/f
E7b9
C5
B5
Bb7
Aaug
...



Here Comes The Sun

Capo VII
Intro
D
G
A7
e|--2-----0--2-----2--0------------0----------------------0---|
B|--3--3--------3--------3--0--3--(0)--3--0--2--0--2--3--(2)--|
G|--2-----------------------0-------------0-------------------|
D|--0-----------------------0-------------2-------------------|
A|--------------------------2-------------0-------------------|
E|--------------------------3---------------------------------|
D
G
A7
e|-----2-----0--2-----2--0--------2--0---------|
B|--3-----3--------3--------3--0--------3---2--|
G|--2--------------------------0------------0--|
D|--0--------------------------0------------2--|
A|-----------------------------2------------0--|
E|-----------------------------3---------------|
Verse
D
G
E7
e|------2--0--2-----2-----0--2-----2--0--2-------|
B|---3-----------3-----3--------0-------------3--|
G|---2--------------------------0-------------1--|
D|---0--------------------------0-------------0--|
A|------------------------------2-------------2--|
E|------------------------------3-------------0--|
Here comes the sun Here... sun
D
e|------2--0----|
B|---3-------3--|
G|---2----------|
D|---0----------|
A|--------------|
E|--------------|
It's all right
Fill
e|----------0--------0--------0--------0---------------|
B|-------3---------3--------3--------3-----3--2--0-----|
G|--2/4----------2--------0--------2----------------2--|
D|-----------------------------------------------------|
A|-----------------------------------------------------|
E|-----------------------------------------------------|
D
A7
e|------2-----0--2-------------------0---|
B|---3-----3---------0--2--0--2--3--(2)--|
G|---2---------------0-------------------|
D|---0---------------2-------------------|
A|-------------------0-------------------|
E|---------------------------------------|
Verse
D
G
A7
e|---2-----0--2-----2--0------------0----------------------0----|
B|---3--3--------3--------3--0--3--(0)--3--0--2--0--2--3--(2)---|
G|---2-----------------------0-------------0--------------------|
D|---0-----------------------0-------------2--------------------|
A|---------------------------2-------------0--------------------|
E|---------------------------3----------------------------------|
Little.. It's... long cold... winter
D
G
A7
e|---2--2-----0--2-----2--0--------2--0---------|
B|---3-----3--------3--------3--0--------3---2--|
G|---2--------------------------0------------0--|
D|---0--------------------------0------------2--|
A|------------------------------2------------0--|
E|------------------------------3---------------|
Little.. It's... years... here
D
G
E7
e|------2--0--2-----2-----0--2-----2--0--2-------|
B|---3-----------3-----3--------0-------------3--|
G|---2--------------------------0-------------1--|
D|---0--------------------------0-------------0--|
A|------------------------------2-------------2--|
E|------------------------------3-------------0--|
Here comes the sun Here... sun
D
e|------2--0----|
B|---3-------3--|
G|---2----------|
D|---0----------|
A|--------------|
E|--------------|
It's all right
e|----------0--------0--------0--------0---------------|
B|-------3---------3--------3--------3-----3--2--0-----|
G|--2/4----------2--------0--------2----------------2--|
D|-----------------------------------------------------|
A|-----------------------------------------------------|
E|-----------------------------------------------------|
e|------2-----0--2-------------------0---|
B|---3-----3---------0--2--0--2--3--(2)--|
G|---2---------------0-------------------|
D|---0---------------2-------------------|
A|-------------------0-------------------|
E|---------------------------------------|
D
A7
Verse
D
Little darling
G
A7
The smiles returning to the faces
D
Little darling
G
A7
It seems like years since it's been here
D
Here comes the sun
G
E
Here comes the sun and I say
D
It's all right
Bridge
e|--------------------------------------------2-----|
B|-----------------1--------------------------3--2--|
G|--------------2-----------0--------0--------2--0--| x6
D|--------2--3-----------2--------0-----------0--2--|
A|--0--4--------------3--------2-----------2-----0--|
E|--------------------------------------3-----------|
e|--------------------0-------0---3---5--5--|
B|-2--0--2--3--2--3--(2)--3--(2)------------|
G|-0----------------------------------------|
D|-2----------------------------------------|
A|-0----------------------------------------|
E|------------------------------------------|
Verse
D
Little darling
G
A7
I feel that ice is slowly melting
D
Little darling
G
A7
It seems like years since it's been clear
D
Here comes the sun
G
E
Here comes the sun and I say
D
It's all right
Fill
e|----------0--------0--------0--------0---------------|
B|-------3---------3--------3--------3-----3--2--0-----|
G|--2/4----------2--------0--------2----------------2--|
D|-----------------------------------------------------|
A|-----------------------------------------------------|
E|-----------------------------------------------------|
D
Here comes the sun
G
E
Here comes the sun and
D
It's all right
Coda
e|------0-----0-----0-----0-|--------|----2-0---------|
B|----3-----3-----3-----3---|3p2-0---|----3-----3-----|
G|2/4-----2-----0-----2-----|------2-|----2---------2/|
D|--------------------------|--------|0---------------|
A|--------------------------|--------|----------------|
E|--------------------------|--------|----------------|
. . . . . . . . . . . .
e|----0-----0-----0-----0-|--------|----------------------2-|
B|--3-----3-----3-----3---|3p2-0---|----1-----------------3-|
G|4-----2-----0-----2-----|------2-|--2-------0-----0-----2-|
D|------------------------|--------|3-------2-----0-------0-|
A|------------------------|--------|------3-----2-------2---|
E|------------------------|--------|------------------3-----|
. . . . . . . .



Because

C#m xx2120
D#m7b5 xx1222 I think the A9 should be an A7 alternative xx2111
G#7 xx1112 And the A13 following then can be a F#m7 xx1111
Suggested voicings:
A13 x02022
A9 x02423
Ddim xx0101 A13 x05675 (= A7add13) or A6 x02222
A9 x42000
F# xx4322
C#m
C#m
D#m7b5
G#7
A
C#m
A7
A13
D
Ddim
C#m
C#m
Be-cause the world is round
D#m7b5
G#7
It turns me on...
A
C#m
A9
A13
Be-cause the world is round...
D
Ddim
Ah...
C#m
C#m
Be-cause the wind is high
D#m7b5
G#7
It blows my mind...
A
C#m
A9
A13
Be-cause the wind is high...
D
Ah...
Ddim
F#
Love is old, love is new
G#7
G#7
Love is all, love is you.
C#m
C#m
Be-cause the sky is blue
D#m7b5
G#7
It makes me cry...
A
C#m
A9
A13
Be-cause the sky is blue...
D
Ddim
C#m
C#m
Ah...
D#m7b5
G#7
A
C#m
Ah...
A9
A13
Oo...
D
Ddim
Ah...



You Never Give Me Your Money

Am7
Dm7
You never give me your money,
G
C
You only give me your funny paper
Fmaj7
Dm6
E
And in the middle of negotiations,
Am
You break down
Am7
Dm7
I never give you my number,
G
C
I only give you my situation,
Fmaj7
Dm6
E
And in the middle of investigations,
Am
You break down
C
E7
Out of college, money spent
Am
C7
See no future, pay no rent
F
G
C
C7
All the money's gone, nowhere to go
C
E7
Any jobber got the sack,
Am
C7
Monday morning, turning back,
F
G
C
C7
Yellow lorry slow, nowhere to go.
Bb
F
But oh that magic feeling:
F
C
Nowhere to go
Bb
F
Oh, that magic feeling,
F
C
Nowhere to go, Nowhere to go |
Bb
|
F
|
C
|
Bb
|
F
|
C
|
Bb
|
F
| |
C
|
D7
|
Eb
G7
|
C
A7
|
Eb
C7
|
F#
Eb7
|
A
F#
G
G#
|
A
B7
One sweet dream:
C
Pick up the bags,
E7
A7
Get in the limousine
Dm7
G7
Soon We'll be away from here,
Dm7
G7
A
Step on the gas and wipe that tear away
B7
Cmaj7
G
One sweet dream come true,
A
C
G
A
Today, Came true today
C
G
One two three four five six seven
A
All good children go to heaven... 5x



Sun King

A
E
2x
E
A
A6
. . .
Amaj7
E
A
E
A6
. . .
Amaj7
E
A
E
A6
. . .
Amaj7
E
A
E
Dm
ahhh
C
Em
Gm
A
Here comes the sun king
C
Em
Gm
A
Here comes the sun king
F
D
F
D
Everybody's laughing, Everybody's happy
C
Em
Gm
F
Here comes the sun king
A
E
2x



Mean Mr. Mustard

E
E7
Mean Mr Mustard sleeps in the park
E
Shaves in the dark, trying to save paper
B
B7
C7
Db7
D7
Sleeps in a hole in the road
D
D7
Db7
C7
B7
Saving up to buy his new clothes
B
Keeps a ten bob note up his nose
E
C7
B7
E
C7
B7
Such a mean old man, mean old man
E
E7
His sister Pam works in a shop
E
She never stops she's a go-getter
B
B7
C7
Db7
D7
Takes him out to look at the Queen
D7
Db7
C7
B7
Only place that he's ever been Always shouts out something obscene
E
C7
B7
E
C7
B7
Such a dirty old man, dirty old man
B7
C7
Db7
D
A
E
D
A
E



Polythene Pam

D/e
A
E
x2
Verse 1
E
D
A
E
Well, you should see Polythene Pam
D
A
E
She's so good looking but she looks like a man
G
B
Well, you should see her in drag, dressed in her polythene bag
C
D
E
Yes, you should see Polythene Pam.
C
D
E
Yeah, yeah, yeah
D/e
A
E
x2
Verse 2
Get a dose of her in jackboots and kilt She's killer diller when she's dressed to the hilt She's the kind of a girl that makes the _News of the World_ Yes, you could say she was attractively built. Yeah, yeah, yeah
D/e
A
E
D/e
A
E
D
A
E
D
A
E
D
A
E



She Came In Through The Bathroom Window

A
D
She came in through the bathroom window
A
D
Protected by a silver spoon
A
D
But now she sucks her thumb and wonders
A
By the banks of her own lagoon
A
Dm
Didn't anybody tell her?
A
Dm
Didn't anybody see?
G7
C
Sunday's on the phone to Monday
G7
C
A
Tuesday's on the phone to me
A
D
She said she'd always been a dancer
A
D
She worked in fifteen clubs a day
A
D
And though she thought I knew the answer
A
Well, I knew but I could not say
A
D
And so I quit the police department
A
D
And got myself a steady job
A
D
And though she tried her best to help me
A
She could steal but she could not rob
A
Dm
Didn't anybody tell her?
A
Dm
Didn't anybody see?
G7
C
Sunday's on the phone to Monday
G7
C
A
Tuesday's on the phone to me oh yea



Golden Slumbers

Intro (quietly)
e|------------------------|
B|------------------------|
G|0-----0-----0-----0-----|
D|------------------------|
A|3--0--3--0--3--0--3--0--|
E|------------------------|
Verse (quietly the 1st time, louder the 2nd time)
Am7
Dm7
Once there was a way to get back homeward
G7
C
Once there was a way to get back home
Em
Am
Dm9
Sleep pretty darling, do not cry,
G7
C
And I will sing a lullaby
Chorus (loudly)
C
F
C
Golden slumbers fill your eyes
C
F
C
Smiles awake you when you rise
Em
Am
Dm9
Sleep pretty darling, do not cry,
G7
C
And I will sing a lullaby
Verse (quietly the 1st time, louder the 2nd time)
Am7
Dm7
Once there was a way to get back homeward
G7
C
Once there was a way to get back home
Em
Am
Dm9
Sleep pretty darling, do not cry,
G7
C
And I will sing a lullaby



Carry That Weight

C
G
Boy, you're gonna to carry that weight
C
Carry that weight a long time.
G
Boy, you're gonna to carry that weight
C
Carry that weight a long time.
Am7
Dm7
Dm
G
Csus4
C
Fmaj7
Dm
E7
Am
Dm7
Dm
I never give you my pil low
G
C
I only send you my invitations
Fmaj7
Dm
E7
And in the middle of the celebrations
Am
G
C
G
I break down
C
G
Boy, you're gonna to carry that weight
C
Carry that weight a long time.
G
Boy, you're gonna to carry that weight
C
A
Carry that weight a long time.
C
G
A



The End

Intro
A
D
|
B
E
|
A
D
A
Verse
A
D
B
E
Oh yeah all right
A/c#
B/f#
A7
D7
Are you gonna be in my dreams tonight
A7
D7
A7
D7
A7
D7
A7
D7
Love you love you love you love you love you love you love you love you
A7
D7
A7
D7
A7
D7
A7
D7
Love you love you love you love you love you love you love you love you
A7
D7
A7
D7
A7
D7
A7
D7
Love you love you love you love you love you love you love you love you
A7
Love you love you.
Piano link
A
Outro
A
G
And in the end the love you take
F
G7
C
Is equal to the love you make |
D/c
|
Cm7
F/c
|
C
|



Her Majesty

On the last "Her majesty's a pretty nice girl"
you just quickly slide a partial F shape (XX540X)
up from the 3rd to the 5th fret twice, like a slur.
D
D/c#
D/b
Asus4
Her Majesty's a pretty nice girl,
E7
A
D
/a
/b
/c#
But she doesn't have a lot to say
D
D/c#
D/b
Asus4
Her Majesty's a pretty nice girl,
E7
A
Asus4
A
But she changes from day to day
Bm
Bsus2
I wanna tell her that I love her a lot,
D7
G
But I gotta get a bellyfull of wine
D
B7
Her Majesty's a pretty nice girl
E7
A
D
Someday, I'm gonna make her mine,
B7
E7
A
D
Oh, yeah... Someday, I'm gonna make her mine.
End on the open A string