Chordproc: Beatles : Beatles For Sale

Beatles : Beatles For Sale


  1. No Reply
  2. I'm A Loser
  3. Baby's In Black
  4. I'll Follow The Sun
  5. Eight Days A Week
  6. Words Of Love
  7. Honey Don't
  8. Every Little Thing
  9. What You're Doing

No Reply

G6add9 322233
C
This happened once before
D7
G6
When I came to your door: no reply
C
They said it wasn't you
D7
G
But I saw you peep through your window
Em
Bm
I saw the light
Cmaj7
Bm
I saw the light
Am7
I know that you saw me
D7
G
'Cause I looked up to see your face
I tried to telephone They said you were not home: that's a lie 'Cause I know where you've been I saw you walk in your door I nearly died I nearly died 'Cause you walked hand in hand With another man in my place
G
B7
E
If I were you I'd realize that I
Am
C
G
Love you more than any other guy
G
B7
E
And I'll forgive the lies that I
Am
C
G
Heard before when you gave me no reply
Em
Bm
No reply
Cmaj7
G6add9
No reply



I'm A Loser

Am7
D7
I'm a loser, I'm a loser
Am7
F
D7
And I'm not what I appear to be
G
Dm
F
G
Of all the love I have won or have lost
Dm
F
G
There is one love I should never have crossed
Dm
F
G
She was a girl in a million my friend
Dm
F
G
I should have known she would win in the end
Am7
D7
Am7
D7
I'm a loser, and I lost someone who's near to me
G
Em
Am7
F
D7
I'm a loser, and I'm not what I appear to be
Although I laugh and I act like a clown Beneath this mask I am wearing a frown My tears are falling like rain from the sky Is it for her or myself that I cry I'm a loser, and I lost someone who's near to me I'm a loser, and I'm not what I appear to be What have I done to deserve such a fate I realise I have left it too late And so it's true pride comes before a fall I'm telling you so that you don't lose all I'm a loser, and I lost someone who's near to me I'm a loser, and I'm not what I appear to be



Baby's In Black

E
B7
A
B7
Oh dear, what can I do, baby's in black, and I'm feeling blue
E
A
E
B7
Tell me oh, what can I do
E
E7
A
She thinks of him and so she dresses in black
A
E
B7
E
And though he'll never come back she's dressed in black
E
B7
A
B7
Oh dear, what can I do, baby's in black, and I'm feeling blue
E
A
E
B7
Tell me oh, what can I do
E
E7
A
I think of her, but she thinks only of him
A
E
B7
E
And though it's only a whim she thinks of him
C#m
F#
Oh how long will it take
A
B7
Till she sees the mistake she has
E
B7
A
B7
Oh dear, what can I do baby's in black, and I'm feeling blue
E
A
E
B7
Tell me oh, what can I do
E
E7
A
She thinks of him and so she dresses in black
A
E
B7
E
And though he'll never come back she's dressed in black
E
B7
A
B7
Oh dear, what can I do baby's in black, and I'm feeling blue
E
A
E
B7
Tell me oh, what can I do



I'll Follow The Sun

C
F
C
G
F
C
D
One day you'll look to see I've gone
C
Em
D
G
C
F
C
For tomorrow may rain so, I'll follow the sun
G
F
C
D
Some day you'll know I was the one
C
Em
D
G
C
C7
But tomorrow may rain so, I'll follow the sun
Dm
Fm
C
C7
And now the time has come and so my love I must go
Dm
Fm
C
Dm
And though I lose a friend in the end you will know, oh oh oh
G
F
C
D
One day you'll find that I have gone
C
Em
D
G
C
F
C
For tomorrow may rain so, I'll follow the sun
Solo
G
F
C
D
C
Em
D
G
C
C7
Yet, tomorrow may rain so, I'll follow the sun
Dm
Fm
C
C7
And now the time has come and so my love I must go
Dm
Fm
C
Dm
And though I lose a friend in the end you will know, oh oh oh
G
F
C
D
One day you'll find that I have gone
C
Em
D
G
C
F
C
For tomorrow may rain so, I'll follow the sun



Eight Days A Week

D xx0775 or xx0232
E/D xx0997 or xx0454
G/D x-x-0-12-12-10 or xx0787
Intro
D
E/d
G/d
D
Verse
D
E7
Ooh I need your love babe
G
D
Guess you know it's true
D
E7
Hope you need my love babe
G
D
Just like I need you
Chorus
Bm
G
Bm
E
Hold me, love me, hold me, love me
D
E7
I ain't got nothin' but love babe
G
D
Eight days a week
Verse
D
E7
Love you every day girl
G
D
Always on my mind
D
E7
One thing I can say girl
G
D
Love you all the time
Chorus
Bm
G
Bm
E
Hold me, love me, hold me, love me
D
E7
I ain't got nothin' but love girl
G
D
Eight days a week
Bridge
A
Eight days a week
Bm
I love you
E
Eight days a week
G
A
Is not enough to show I care
Verse
D
E7
Ooh I need your love babe
G
D
Guess you know it's true
D
E7
Hope you need my love babe
G
D
Just like I need you
Chorus
Bm
G
Bm
E
Hold me, love me, hold me, love me
D
E7
I ain't got nothin' but love babe
G
D
Eight days a week
Bridge
A
Eight days a week
Bm
I love you
E
Eight days a week
G
A
Is not enough to show I care
Verse
D
E7
Love you every day girl
G
D
Always on my mind
D
E7
One thing I can say girl
G
D
Love you all the time
Chorus
Bm
G
Bm
E
Hold me, love me, hold me, love me
D
E7
I ain't got nothin' but love girl
Outro
G
D
Eight days a week
G
D
Eight days a week
G
D
Eight days a week
D
E/d
G/d
D



Words Of Love

Intro
A
D
E
E|-5-------5-------0-------0-------|-----2-----------0-----------0--|
B|-5-------5-------2/5-----5---2---|---------3-----------2---0------|
G|---------------------------------|-2-----------2------------------|
D|---------------------------------|--------------------------------|
A|---------------------------------|--------------------------------|
E|---------------------------------|--------------------------------|
^ ^ ^ ^ ^ ^ ^ ^
Repeat this figure two more times, then play this:
A
D
E
E|-5-------5-----5-0---0-----------|-----2-----------0--------------|
B|-5-------5-----5-5---5-------0---|---------3-----------2---4------|
G|---------------------------------|-2-----------2---------------1--|
D|---------------------------------|--------------------------------|
A|---------------------------------|--------------------------------|
E|---------------------------------|--------------------------------|
^ ^ ^ ^ ^ ^ ^ ^
Verse 1
A
D
Hold me close and
E
A
D
Tell me how you feel
E
A
D
Tell me love is real
E
A
D
E
Mm mm mm um
Verse 2
A
D
Words of love you
E
A
D
Whisper soft and true
E
A
D
Darling I love you real
E
Mm mm
Solo
Verse 3
A
D
Let me hear you say
E
A
D
The words I long to hear
E
A
D
Darling when you're near
E
A
D
E
Mm mm mm mm
Verse 4
A
D
Words of love you
E
A
D
Whisper soft and true
E
A
D
Darling I love you
E
A
D
E
Mm mm mm mm
Coda



Honey Don't

Verse 1
E
Well how come you say you will when you won't
C
Say you do baby when you don't
E
Tell me honey how do you feel
C
Tell the truth now is love real
Chorus
B
E
But ah-a honey don't well honey don't
E
A
Yeah honey don't well honey don't yeah honey don't
B
A
E
Say you will when you won't ah-a honey don't
Verse 2
Well I love you baby and I want you to know I like the way you wear your clothes Everything about you is so dog-gone sweet You got that sand all over your feet
Chorus
Verse 3
Well I love you baby on a Saturday night Sunday morning it don't feel right You been out painting the town Ah-a honey been steppin' around
Chorus



Every Little Thing

Intro:
A
A
E
E|---------0-0-----0-----0-----0---|-0-0-----0----------------------|
B|---------0-0-----0-----0-----0---|-0-0-----3----------------------|
G|---------6/7-----6-----4-----2---|-2/4-----4----------------------|
D|---------------------------------|--------------------------------|
A|---------------------------------|--------------------------------|
E|---------------------------------|--------------------------------|
^ ^ ^ ^ ^ ^ ^ ^
Verse 1:
A
D
E
A
G
D
A
When I'm walking beside her People tell me I'm lucky
B
B7/a
E/g#
A
D
E
Yes, I know I'm a lucky guy I remember the first time
A
G
D
A
B
B7/a
E/g#
A
I was lonely without her Yes I'm thinking about her now
Chorus:(This tab is the Chorus Figure)
A
G
Every little thing she does
E|-9-------------------------------|--9\7--------7-------7---7------|
B|-10------------------------------|-10\8--------8-------8---8------|
G|-9-------------------------------|--9\7--------7-------7---7------|
D|---------------------------------|--------------------------------|
A|---------------------------------|--------------------------------|
E|---------------------------------|--------------------------------|
^ ^ ^ ^ ^ ^ ^ ^
A
She does for me yeah
E|-9-------------------------------|-7/9-------------7/9------------|
B|-10------------------------------|-8/10------------8/10-----------|
G|-9-------------------------------|-7/9-------------7/9------------|
D|---------------------------------|--------------------------------|
A|---------------------------------|--------------------------------|
E|---------------------------------|--------------------------------|
^ ^ ^ ^ ^ ^ ^ ^
A
G
And you know the things she does
E|-9-------------------------------|--9\7--------7-------7---7------|
B|-10------------------------------|-10\8--------8-------8---8------|
G|-9-------------------------------|--9\7--------7-------7---7------|
D|---------------------------------|--------------------------------|
A|---------------------------------|--------------------------------|
E|---------------------------------|--------------------------------|
^ ^ ^ ^ ^ ^ ^ ^
A
she does for me, woo
E|-9-------------------------------|-7/9-------------7/9------------|
B|-10------------------------------|-8/10------------8/10-----------|
G|-9-------------------------------|-7/9-------------7/9------------|
D|---------------------------------|--------------------------------|
A|---------------------------------|--------------------------------|
E|---------------------------------|--------------------------------|
^ ^ ^ ^ ^ ^ ^ ^
Verse 2:
A
D
E
A
G
D
A
When I'm with her I'm happy Just to know that she loves me
B
B7/a
E/g#
A
D
E
Yes, I know that she loves me now There is one thing I'm sure of
A
G
D
A
B
B7/a
E/g#
A
I will love her forever For I know love will never die
Chorus:(With Chorus Figure)
A
G
A
Every little thing she does she does for me, yeah
G
A
And you know the things she does she does for me, woo
Solo:
A
D
E
E|---------0-0-----0-----0-----0---|-0-0-----0----------------------|
B|---------0-0-----0-----0-----0---|-0-0-----3----------------------|
G|---------6/7-----6-----4-----2---|-2/4-----4----------------------|
D|---------------------------------|--------------------------------|
A|---------------------------------|--------------------------------|
E|---------------------------------|---------------------0---2---4--|
^ ^ ^ ^ ^ ^ ^ ^
A
G
D
A
E|---------0-0-----0-----0-----0---|-3-------2----------------------|
B|---------0-0-----0-----0-----0---|-0-------3----------------------|
G|---------6/7-----6-----4-----2---|-0-------2----------------------|
D|---------------------------------|-0-------0----------------------|
A|-0-------------------------------|--------------------------------|
E|---------------------------------|--------------------------------|
^ ^ ^ ^ ^ ^ ^ ^
B
B7/a
E/g#
A
E|---------------------------------|--------------------------------|
B|------3---------------3----------|-----------3-----2--------------|
G|-4---------4-----2---------2-----|------4----------2--------------|
D|---------------------------------|-6---------------2--------------|
A|---------------------------------|--------------------------------|
E|---------------------------------|--------------------------------|
^ ^ ^ ^ ^ ^ ^ ^
A
D
E
E|---------0-0-----0-----0-----0---|-0-0-----0----------------------|
B|---------0-0-----0-----0-----0---|-0-0-----3----------------------|
G|---------6/7-----6-----4-----2---|-2/4-----4----------------------|
D|---------------------------------|--------------------------------|
A|---------------------------------|--------------------------------|
E|---------------------------------|--------------------------------|
^ ^ ^ ^ ^ ^ ^ ^
Chorus:(With Chorus Figure)
A
G
A
Every little thing she does she does for me, yeah
G
A
And you know the things she does she does for me, woo
Coda
A
D
E
Every little
E|---------0-0-----0-----0-----0---|-0-0-----0----------------------|
B|---------0-0-----0-----0-----0---|-0-0-----3----------------------|
G|---------6/7-----6-----4-----2---|-2/4-----4----------------------|
D|---------------------------------|--------------------------------|
A|---------------------------------|--------------------------------|
E|---------------------------------|--------------------------------|
^ ^ ^ ^ ^ ^ ^ ^
A
D
E
thing Every little
E|---------0-0-----0-----0-----0---|-0-0-----0----------------------|
B|---------0-0-----0-----0-----0---|-0-0-----3----------------------|
G|---------6/7-----6-----4-----2---|-2/4-----4----------------------|
D|---------------------------------|--------------------------------|
A|---------------------------------|--------------------------------|
E|---------------------------------|--------------------------------|



What You're Doing

Intro
The following riff will be called Riff 1,
played throughout the song whenever the progression "D-G" is present.
D
G
E|---------------------------------|--------------------------------|
B|---------------------------------|--------------------------------|
G|-----------------4---2-----------|--------------------------------|
D|-0-----------4-----------4---2---|---------2---0---2---4------0---|
A|---------------------------------|--------------------------------|
E|---------------------------------|--------------------------------|
^ ^ ^ ^ ^ ^ ^ ^
Repeat Riff 1
Verse 1
D
G
D
G
Look what you're doing I'm feeling blue and lonely would it
Bm
G
D
G
Be too much too ask of you What You're Doing to me
Verse 2
D
G
D
G
You got me running and there's no fun in it why should it
Bm
G
D
G
Be too much too ask of you What You're Doing to me
Bridge
G
Bm
G
Bm
I've been waiting here for you wondering what you're gonna do
E
A
Should you need a love that's true it's me
Verse 3
D
G
D
G
Please stop your lying you got me crying girl why should it
Bm
G
D
G
Be too much too ask of you What You're Doing to me
Solo
D
G7
E|-5-----------------------5-------|-9-------7----------------------|
B|-7-----------------------7-------|-8-------6----------------------|
G|---------------------------------|--------------------------------|
D|---------------------------------|--------------------------------|
A|---------------------------------|--------------------------------|
E|---------------------------------|--------------------------------|
^ ^ ^ ^ ^ ^ ^ ^
D
G7
E|-5---------------------------5---|-9---9---7---7------------------|
B|-7---------------------------7---|-8---8---6---6------------------|
G|---------------------------------|--------------------------------|
D|---------------------------------|--------------------------------|
A|---------------------------------|--------------------------------|
E|---------------------------------|--------------------------------|
^ ^ ^ ^ ^ ^ ^ ^
G7
D
E|-2-------------------------------|--------------------------------|
B|-----3-------------------3-------|--------------------------------|
G|-------------4-------------------|-----4-------------------4------|
D|---------------------------------|-------------5------------------|
A|---------------------------------|-5------------------------------|
E|---------------------------------|--------------------------------|
^ ^ ^ ^ ^ ^ ^ ^
D
G7
E|---------------------------------|--------------------------------|
B|---------------------------------|--------------------------------|
G|-4-------------------------------|-2-------------------2----------|
D|-----5---------------------------|-4-----------------------4------|
A|-------------5---------------5---|--------------------------------|
E|---------------------------------|--------------------------------|
^ ^ ^ ^ ^ ^ ^ ^
Bridge
G
Bm
G
Bm
I've been waiting here for you wondering what you're gonna do
E
A
Should you need a love that's true it's me
Verse 4
D
G
D
G
Please stop your lying you got me crying girl why should it
Bm
G
D
Be too much too ask of you What You're Doing to me
Coda
G
D
G
D
What you're doing to me What you're doing to me
G
D
A
D
G7
D
G7