Chordproc: Beatles : Beatles For Sale

Beatles : Beatles For Sale


  1. No Reply
  2. I'm A Loser
  3. Baby's In Black
  4. I'll Follow The Sun
  5. Eight Days A Week
  6. Words Of Love
  7. Honey Don't
  8. Every Little Thing
  9. What You're Doing

No Reply

G6add9 322233
C
This happened once before
D7
G6
When I came to your door: no reply
C
They said it wasn't you
D7
G
But I saw you peep through your window
Em
Bm
I saw the light
Cmaj7
Bm
I saw the light
Am7
I know that you saw me
D7
G
'Cause I looked up to see your face
I tried to telephone They said you were not home: that's a lie 'Cause I know where you've been I saw you walk in your door I nearly died I nearly died 'Cause you walked hand in hand With another man in my place
G
B7
E
If I were you I'd realize that I
Am
C
G
Love you more than any other guy
G
B7
E
And I'll forgive the lies that I
Am
C
G
Heard before when you gave me no reply
Em
Bm
No reply
Cmaj7
G6add9
No reply



I'm A Loser

Am7
D7
I'm a loser, I'm a loser
Am7
F
D7
And I'm not what I appear to be
G
Dm
F
G
Of all the love I have won or have lost
Dm
F
G
There is one love I should never have crossed
Dm
F
G
She was a girl in a million my friend
Dm
F
G
I should have known she would win in the end
Am7
D7
Am7
D7
I'm a loser, and I lost someone who's near to me
G
Em
Am7
F
D7
I'm a loser, and I'm not what I appear to be
Although I laugh and I act like a clown Beneath this mask I am wearing a frown My tears are falling like rain from the sky Is it for her or myself that I cry I'm a loser, and I lost someone who's near to me I'm a loser, and I'm not what I appear to be What have I done to deserve such a fate I realise I have left it too late And so it's true pride comes before a fall I'm telling you so that you don't lose all I'm a loser, and I lost someone who's near to me I'm a loser, and I'm not what I appear to be



Baby's In Black

Capo V
E
B7
Oh dear, what can I do?
A
B7
Baby's in black, and I'm feeling blue
E
A
E
B7
Tell me oh, what can I do?
E
E7
A
She thinks of him and so she dresses in black
A
E
B7
E
And though he'll never come back she's dressed in black
Oh dear, what can I do? Baby's in black, and I'm feeling blue Tell me oh, what can I do?
E
E7
A
I think of her, but she thinks only of him
A
E
B7
E
And though it's only a whim she thinks of him
C#m
F#
Oh how long will it take?
A
B7
E
Till she sees the mistake she has made...
Oh dear, what can I do ? Baby's in black, and I'm feeling blue Tell me oh, what can I do?
Solo over chorus chords
Oh how long will it take? Till she sees the mistake she has made... Oh dear, what can I do? Baby's in black, and I'm feeling blue Tell me oh, what can I do?
E
E7
A
She thinks of him and so she dresses in black
A
E
B7
E
And though he'll never come back she's dressed in black
Oh dear, what can I do? Baby's in black, and I'm feeling blue Tell me oh, what can I do?



I'll Follow The Sun

C
F
C
G
F
C
D
One day you'll look to see I've gone
C
Em
D
G
C
F
C
For tomorrow may rain so, I'll follow the sun
G
F
C
D
Some day you'll know I was the one
C
Em
D
G
C
C7
But tomorrow may rain so, I'll follow the sun
Dm
And now the time has come
Fm
C
C7
And so my love I must go
Dm
And though I lose a friend
Fm
C
Dm
In the end you will know, oh oh oh
G
F
C
D
One day you'll find that I have gone
C
Em
D
G
C
F
C
For tomorrow may rain so, I'll follow the sun
Solo
G
F
C
D
C
Em
D
G
C
C7
Yet, tomorrow may rain so, I'll follow the sun
Dm
And now the time has come
Fm
C
C7
And so my love I must go
Dm
And though I lose a friend
Fm
C
Dm
In the end you will know, oh oh oh
G
F
C
D
One day you'll find that I have gone
C
Em
D
G
C
F
C
For tomorrow may rain so, I'll follow the sun



Eight Days A Week

D(v) xx0775
E(vii)/D xx0997
G(x)/D xx0CCA
D(v)
E(vii)/d
G(x)/d
D(v)
D
E7
Ooh I need your love babe
G
D
Guess you know it's true
D
E7
Hope you need my love babe
G
D
Just like I need you
Bm
G
Bm
E
Hold me, love me, hold me, love me
D
E7
I ain't got nothin' but love babe
G
D
Eight days a week
D
E7
Love you every day girl
G
D
Always on my mind
D
E7
One thing I can say girl
G
D
Love you all the time
Bm
G
Bm
E
Hold me, love me, hold me, love me
D
E7
I ain't got nothin' but love girl
G
D
Eight days a week
A
Eight days a week
Bm
I love you
E
Eight days a week
G
A
Is not enough to show I care
D
E7
Ooh I need your love babe
G
D
Guess you know it's true
D
E7
Hope you need my love babe
G
D
Just like I need you
Bm
G
Bm
E
Hold me, love me, hold me, love me
D
E7
I ain't got nothin' but love babe
G
D
Eight days a week
A
Eight days a week
Bm
I love you
E
Eight days a week
G
A
Is not enough to show I care
D
E7
Love you every day girl
G
D
Always on my mind
D
E7
One thing I can say girl
G
D
Love you all the time
Bm
G
Bm
E
Hold me, love me, hold me, love me
D
E7
I ain't got nothin' but love girl
G
D
Eight days a week
G
D
Eight days a week
G
D
Eight days a week
D(v)
E(vii)/d
G(x)/d
D(v)



Words Of Love

A
D
E
E|-5----5-----0-----0------|----2---------0--------0-|
B|-5----5-----2/5---5---2--|-------3---------2--0----|
G|-------------------------|-2--------2--------------|
D|-------------------------|-------------------------|
A|-------------------------|-------------------------|
E|-------------------------|-------------------------|
Repeat this figure two more times, then play this:
A
D
E
E|-5----5---5-0---0--------|----2---------0----------|
B|-5----5---5-5---5-----0--|-------3---------2--4----|
G|-------------------------|-2--------2------------1-|
D|-------------------------|-------------------------|
A|-------------------------|-------------------------|
E|-------------------------|-------------------------|
A
D
Hold me close and
E
A
D
Tell me how you feel
E
A
D
Tell me love is real
E
A
D
E
Mm mm mm um
A
D
Words of love you
E
A
D
Whisper soft and true
E
A
D
Darling I love you real
E
Mm mm
Solo
A
D
Let me hear you say
E
A
D
The words I long to hear
E
A
D
Darling when you're near
E
A
D
E
Mm mm mm mm
A
D
Words of love you
E
A
D
Whisper soft and true
E
A
D
Darling I love you
E
A
D
E
Mm mm mm mm



Honey Don't

E
Well how come you say you will when you won't
C
Say you do baby when you don't
E
Tell me honey how do you feel
C
Tell the truth now is love real
B
E
But ah-a honey don't, well honey don't
E
A
Yeah honey don't, well honey don't, yeah honey don't
B
A
E
Say you will when you won't ah-a honey don't
Well I love you baby and I want you to know I like the way you wear your clothes Everything about you is so dog-gone sweet You got that sand all over your feet But ah-a honey don't, well honey don't Yeah honey don't, well honey don't, yeah honey don't Say you will when you won't ah-a honey don't Well I love you baby on a Saturday night Sunday morning it don't feel right You been out painting the town Ah-a honey been steppin' around But ah-a honey don't, well honey don't Yeah honey don't, well honey don't, yeah honey don't Say you will when you won't ah-a honey don't



Every Little Thing

Intro:
A
A
E
E|---------0-0-----0-----0-----0---|-0-0-----0----------------------|
B|---------0-0-----0-----0-----0---|-0-0-----3----------------------|
G|---------6/7-----6-----4-----2---|-2/4-----4----------------------|
D|---------------------------------|--------------------------------|
A|---------------------------------|--------------------------------|
E|---------------------------------|--------------------------------|
Verse 1:
A
D
E
A
G
D
A
When I'm walking beside her People tell me I'm lucky
B
B7/a
E/g#
A
D
E
Yes, I know I'm a lucky guy I remember the first time
A
G
D
A
B
B7/a
E/g#
A
I was lonely without her Yes I'm thinking about her now
Chorus:(This tab is the Chorus Figure)
A
G
E|-9-------------------------------|--9\7--------7-------7---7------|
B|-10------------------------------|-10\8--------8-------8---8------|
G|-9-------------------------------|--9\7--------7-------7---7------|
D|---------------------------------|--------------------------------|
A|---------------------------------|--------------------------------|
E|---------------------------------|--------------------------------|
Every little thing she does
A
E|-9-------------------------------|-7/9-------------7/9------------|
B|-10------------------------------|-8/10------------8/10-----------|
G|-9-------------------------------|-7/9-------------7/9------------|
D|---------------------------------|--------------------------------|
A|---------------------------------|--------------------------------|
E|---------------------------------|--------------------------------|
She does for me yeah
A
G
E|-9-------------------------------|--9\7--------7-------7---7------|
B|-10------------------------------|-10\8--------8-------8---8------|
G|-9-------------------------------|--9\7--------7-------7---7------|
D|---------------------------------|--------------------------------|
A|---------------------------------|--------------------------------|
E|---------------------------------|--------------------------------|
And you know the things she does
A
E|-9-------------------------------|-7/9-------------7/9------------|
B|-10------------------------------|-8/10------------8/10-----------|
G|-9-------------------------------|-7/9-------------7/9------------|
D|---------------------------------|--------------------------------|
A|---------------------------------|--------------------------------|
E|---------------------------------|--------------------------------|
she does for me, woo
Verse 2:
A
D
E
A
G
D
A
When I'm with her I'm happy Just to know that she loves me
B
B7/a
E/g#
A
D
E
Yes, I know that she loves me now There is one thing I'm sure of
A
G
D
A
B
B7/a
E/g#
A
I will love her forever For I know love will never die
Chorus:(With Chorus Figure)
A
G
A
Every little thing she does she does for me, yeah
G
A
And you know the things she does she does for me, woo
Solo:
A
D
E
E|---------0-0-----0-----0-----0---|-0-0-----0----------------------|
B|---------0-0-----0-----0-----0---|-0-0-----3----------------------|
G|---------6/7-----6-----4-----2---|-2/4-----4----------------------|
D|---------------------------------|--------------------------------|
A|---------------------------------|--------------------------------|
E|---------------------------------|---------------------0---2---4--|
A
G
D
A
E|---------0-0-----0-----0-----0---|-3-------2----------------------|
B|---------0-0-----0-----0-----0---|-0-------3----------------------|
G|---------6/7-----6-----4-----2---|-0-------2----------------------|
D|---------------------------------|-0-------0----------------------|
A|-0-------------------------------|--------------------------------|
E|---------------------------------|--------------------------------|
B
B7/a
E/g#
A
E|---------------------------------|--------------------------------|
B|------3---------------3----------|-----------3-----2--------------|
G|-4---------4-----2---------2-----|------4----------2--------------|
D|---------------------------------|-6---------------2--------------|
A|---------------------------------|--------------------------------|
E|---------------------------------|--------------------------------|
A
D
E
E|---------0-0-----0-----0-----0---|-0-0-----0----------------------|
B|---------0-0-----0-----0-----0---|-0-0-----3----------------------|
G|---------6/7-----6-----4-----2---|-2/4-----4----------------------|
D|---------------------------------|--------------------------------|
A|---------------------------------|--------------------------------|
E|---------------------------------|--------------------------------|
Chorus:(With Chorus Figure)
A
G
A
Every little thing she does she does for me, yeah
G
A
And you know the things she does she does for me, woo
Coda
A
D
E
E|---------0-0-----0-----0-----0---|-0-0-----0----------------------|
B|---------0-0-----0-----0-----0---|-0-0-----3----------------------|
G|---------6/7-----6-----4-----2---|-2/4-----4----------------------|
D|---------------------------------|--------------------------------|
A|---------------------------------|--------------------------------|
E|---------------------------------|--------------------------------|
Every little
A
D
E
E|---------0-0-----0-----0-----0---|-0-0-----0----------------------|
B|---------0-0-----0-----0-----0---|-0-0-----3----------------------|
G|---------6/7-----6-----4-----2---|-2/4-----4----------------------|
D|---------------------------------|--------------------------------|
A|---------------------------------|--------------------------------|
E|---------------------------------|--------------------------------|
thing Every little



What You're Doing

Riff 1: played over each "D-G" progression.
D
G
E|----------------------|----------------------|
B|----------------------|----------------------|
G|----------4--2--------|----------------------|
D|-0-----4--------4--2--|----2--0--2--4-----0--|
A|----------------------|----------------------|
E|----------------------|----------------------|
D
G
Look what you're doing
D
G
I'm feeling blue and lonely
Bm
G
Would it be too much to ask of you
D
G
What you're doing to me?
You got me running And there's no fun in it Why should it be too much to ask of you What you're doing to me?
G
Bm
I've been waiting here for you
G
Bm
Wondering what you're gonna do
E
A
Should you need a love that's true, it's me
Please stop your lying You got me crying girl Why should it be so much to ask of you What you're doing to me?
D
G7
D
G7
E|-5------------5----|-9----7------------|-5--------------5--|-9--9--7--7--------|
B|-7------------7----|-8----6------------|-7--------------7--|-8--8--6--6--------|
G|-------------------|-------------------|-------------------|-------------------|
D|-------------------|-------------------|-------------------|-------------------|
A|-------------------|-------------------|-------------------|-------------------|
E|-------------------|-------------------|-------------------|-------------------|
G7
D
D
G7
E|-2-----------------|-------------------|-------------------|-------------------|
B|----3---------3----|-------------------|-------------------|-------------------|
G|--------4----------|----4-----------4--|-4-----------------|-2-----------2-----|
D|-------------------|---------5---------|-----5-------------|-4--------------4--|
A|-------------------|-5-----------------|---------5------5--|-------------------|
E|-------------------|-------------------|-------------------|-------------------|
I've been waiting here for you Wondering what you're gonna do Should you need a love that's true, it's me Please stop your lying You got me crying girl Why should it be so much to ask of you What you're doing to me
G
D
What you're doing to me
G
D
What you're doing to me
G
D
A
D
G7
D
G7