Chordproc: Little Feat : Feats Don't Fail Me Now

Little Feat : Feats Don't Fail Me Now


  1. Rock And Roll Doctor
  2. Oh Atlanta
  3. Skin It Back
  4. Spanish Moon
  5. Feats Don't Fail Me Now

Rock And Roll Doctor

Common riffs:
D
A
* |
E
B
**
E|----------|-----------|
B|-3p2------|--5p4------|
G|-2-2------|--4-4------|
D|-4p2------|--6p4------|
A|----------|-----------|
E|----------|-----------|
Intro
E
E
D
E
E
E
E
E
E
D
E
E
E
E
D
B
A
E
E|-----------7---7-7---|-----------7---7-7---|----------7---|
B|-----------9---9-9---|-----------9---9-9---|--3---4-2-9---|
G|-----------9---9-9---|-----------9---9-9---|--2---4-2-9---|
D|--9-9-11-9-9---9-9---|--9-9-11-9-9---9-9---|--4---4-2-9---|
A|--7-7-7--7-7---7-7---|--7-7-7--7-7---7-7---|----------7---|
E|---------------------|---------------------|--------------|
E
D
There was a woman in Georgia didn't feel just right
D
A
B
E(vii)
She had fever all day and chills at night
D
A
* |
B
A
E(vii)
E
D
Now things got worse, yes a serious bind
A
D
/b
/c#
E
At times like this it takes a man with such style I cannot often find
C#m
D
A
B
E(vii)
A doctor of the heart and a doctor of the mind
D
A
* |
B
A
E(vii)
A
/b
/c#
E
If you like country with a boogie beat he's the man to meet
A
/b
/c#
E
If you like the sound of shufflin' feet he can't be beat
A
B
B
A
E(vii)
If you wanna feel real nice, just ask the Rock and Roll doctor's advice
A
B
E(vii)
|
G(vii)
E(vii)
D(v)
A(v)
E(vii)
E
D
A
E
It's just a country town but patients come
E
D
A
E
From Mobile to Moline from miles around
D
A
*
E
B
**
E(vii)
Nagodoches to New Orleans
D
A
*
E
B
**
E(vii)
In beatup old cars or in limousines
D
A
D
A
B
E(vii)
To meet the doctor of soul, he's got his very own thing
Solo
A
A
A
A
A
A
C#
C#
C#
C#
C#
C#
E
D
A
E
B
E
E|-----------------4--4--4----4--4--4----7-------|-------------7---|
B|-2-2-2---2-2-2---6--6--6----6--6--6----9-------|-3p2---5p4---9---|
G|-2-2-2---2-2-2---6--6--6----6--6--6----9-------|-2-2---4-4---9---|
D|-2-2-2---2-2-2---6--6--6----6--6--6----9-------|-4p2---6p4---9---|
A|-----------------4--4--4----4--4--4----7-------|-------------7---|
E|-----------------------------------------------|-----------------|
A
A
A
A
A
A
C#
C#
C#
C#
C#
C#
E
D
A
E
B
E
E|-----------------4--4--4----4--4--4----7-------|-------------7---|
B|-2-2-2---2-2-2---6--6--6----6--6--6----9-------|-3p2---5p4---9---|
G|-2-2-2---2-2-2---6--6--6----6--6--6----9-------|-2-2---4-4---9---|
D|-2-2-2---2-2-2---6--6--6----6--6--6----9-------|-4p2---6p4---9---|
A|-----------------4--4--4----4--4--4----7-------|-------------7---|
E|-----------------------------------------------|-----------------|
A
A
A
A
A
A
C#
C#
C#
C#
C#
C#
A
B
E
E|-----------------4--4--4----4--4--4----5-7-7---|
B|-2-2-2---2-2-2---6--6--6----6--6--6----5-7-9---|
G|-2-2-2---2-2-2---6--6--6----6--6--6----6-8-9---|
D|-2-2-2---2-2-2---6--6--6----6--6--6----7-9-9---|
A|-----------------4--4--4----4--4--4----7-9-7---|
E|---------------------------------------5-7-----|
E(vii)
Two degrees in be-bop, a PhD in swing
E(vii)
A
B
E
A
B
E(vii)
He's the master of rhythm he's a rock and roll king, yeah
E
/b
/c#
E
If you like country with a boogie beat he's the man to meet (he's the man to meet)
E
/b
/c#
E
If you like the sound of shufflin' feet he can't be beat (I say he can't be beat)
D
A
*
E
B
**
E
If you wanna feel real nice
D
A
*
E
B
**
E(vii)
D
A
E
B
E(vii)
Just ask the Rock and Roll doctor's advice
C#
D
A
B
E
E|-4---5---5-7-7---|
B|-6---7---5-7-9---|
G|-6---7---6-8-9---|
D|-6---7---7-9-9---|
A|-4---5---7-9-7---|
E|---------5-7-----|



Oh Atlanta

Intro
|
Am
|
E7
|
F7
Bb
Eb
E
F
| |
F
|
F
|
F
|
F
|
F
They got a place down Kentucky
C
Right down near Ohio
G
Where you can watch the planes at night
Am
Bb
C
People line up to watch each flight
Am
Bb
C
I said watchin' them planes
Am
Bb
C
I wish I was on one
Am
E7
I'm sittin' here thinkin' 'bout my red head dream
F7
Bb
Eb
E
F
If I could only see her tonight
F
C
F
Oh Atlanta, Oh Atlanta!
F
I said yeah! yeah! yeah! Atlanta
C
F
Got to get back to you
|
F
|
F
|
C
|
F
| |
F
|
F
|
C
|
F
|
F
|
F
Well you can drop me off on Peachtree
C
I got to feel that Georgia sun
G
And the women there in Atlanta
Am
Bb
C
They make you awfully glad you come
Am
Bb
C
I said watchin' them planes
Am
Bb
C
I wish I was on one
Am
E7
I'm sittin' here thinking 'bout my crazy dream
F7
Bb
Eb
E
F
If I could only be there tonight
F
C
F
Oh Atlanta, Oh Atlanta!
F
I said yeah! yeah! yeah! Atlanta
C
F
Got to get back to you
Eb
Bb/d
C
F
C
Bb/d
F
We make a day and how just you and me
F/a
Bb
But the music plays all night
C
They got the boogie band blowin' that's bound for hell And when they get to movin' they never stop
F
You just keep on playin' that down home beat You just keep on layin' it down hot
Solo over
|
F
| |
C
|
C
I wish I was on one
Am
E7
I'm sittin' here thinkin' bout my red haired dream
F7
Bb
Eb
E
F
If I could only see her tonight
F
C
F
Oh Atlanta, Oh Atlanta!
F
I said yeah! yeah! yeah! Atlanta
C
F
Got to get back to you
Coda
|
F
|
F
|
C
|
F
|
x2
|
F
|
F
|
F
|
F
|
x2



Skin It Back

Verse 1
D7
Well I'm waitin' for something to take place
Something to take me away from this race
G7
'Round city to city, town to town
D7
Runnin' around in the shoes of a clown
Verse 2
G7
D7
And that desperate, no count, desperado
F9
Bb9
A thief of love, my business is the street
D7
A7
Ab7
G7
I be shakin' 'em down in old Colorado
F9
E7
Eb7
D7
Texas she's nice, but DC's oh so sweet
F9
E7
Eb7
D7
Steal away with me darlin' your lovin' just can't be beat
Chorus
F9
G
F
A
So it seems that the world keeps on turnin' but so what?
G
F6
D7
I don't doubt it, it just keeps on the move
F9
G
You're a dream, and that's all that I ask for
F
A
G
F6
E7
Eb7
D7
So well now, I'm wonderin' just how I'm gonna tell it to you
Skin it back
Verse 3
D9
G7
D7
Somethin' real, somethin' to feel
G7
D9
I can't find a soul who'll take on this mess
G7
D7
A7
Ab7
G7
It's those rock and roll hours early graves without flowers
F9
E7
Eb7
D7
Please, please darlin' put my mind at rest
F9
E7
Eb7
D7
I'm beggin' please darlin' put my mind at rest
Chorus
F9
G
F
A
So it seems that the world keeps on turnin' but so what?
G
F6
D7
I don't doubt it, it just keeps on the move
F9
G
You're a dream, and that's all that I ask for
F
A
G
F6
E7
Eb7
D7
So well now, I'm wonderin' just how I'm gonna tell it to you
Skin it back
D7
Db7
C7
Skin it back, tell it to you Skin it back, tell it to you Skin it back, tell it to you



Spanish Moon

Am
Am7
C
D5
D
D5
X6
(Yeah)
Verse 1
Am
Am7
C
D5
D
D5
Well the night that I got into town,
Am
Am7
C
D5
D
D5
Was the night that the rain froze on the ground.
Am
Am7
C
D5
D
D5
Down the street I heard such a sorrowful tune,
Am
Am7
C
D5
D
D5
Comin' from the place they call the Spanish Moon.
(Hit it)
Verse 2
Am
Am7
C
D5
D
D5
Well I stepped inside and stood by the door,
Am
Am7
C
D5
D
D5
While a Dark Girl Sang and played the guitar.
Am
Am7
C
D5
D
D5
There Was hookers and hustlers, filled up the room,
Am
Am7
C
D5
D
D5
I heard about this place they call the Spanish Moon.
Verse 3
Am
Am7
C
D5
D
D5
One false step you get done in,
Am
Am7
C
D5
D
D5
It's a cold situation.
Am
Am7
C
D5
D
D5
Don't care who, you could all face ruin,
Am
Am7
C
D5
D
D5
You could lose it all down at the Spanish Moon.
Chorus
Am
Am7
C
D5
D
D5
Whiskey and bad cocaine,
Am
Am7
C
D5
D
D5
I hear that poison get you, just the same.
Am
Am7
C
D5
D
D5
And if that -- that don't -- kill you soon,
Am
Am7
C
D5
D
D5
The women will down at the Spanish Moon.
Am
Am7
C
D5
D
D5
X6
Verse 4
Am
Am7
C
D5
D
D5
Well I pawned my watch and I sold my ring,
Am
Am7
C
D5
D
D5
Just to hear that girl singing (Ooh Who).
Am
Am7
C
D5
D
D5
I don't care who, you could all face ruin,
Am
Am7
C
D5
D
D5
You can lose it all down at the Spanish Moon.
Chorus Refrain
Am
Am7
C
D5
D
D5
Whiskey (yeah) and bad cocaine,
Am
Am7
C
D5
D
D5
Poison get you just the same,
Am
Am7
C
D5
D
D5
And if that -- that don't -- kill you soon,
Am
Am7
C
D5
D
D5
The women will down at the Spanish Moon.
C#m
C#m7
E
F#5
F#
F#5
X6
C#m



Feats Don't Fail Me Now

e|-------|--------------------|--------------------|
b|-------|--------------------|---------------0-0_-|
g|-------|-3-4-0_0---0_0---0_-|-3-4-0_0---0_0-0-0_-|
d|-3/5__-|---------2^---------|---------2^---------|
a|-------|---------------2----|--------------------|
E|-------|--------------------|--------------------|
|--------------------|------------|
|--------------------|-/-/--------|
|-3-4-0_0---0_0---0_-|-/-/--------|
|---------2^----2----|-/-/--------|
|--------------------|-/-/-1-2_---|
|--------------------|---------3_-|
Your daddy says...
|----------|--------------------|
|----------|--------------------|
|-------0_-|-3-4-0_0---0_0---0_-|
|-5__-2----|---------2^----2----|
|----------|--------------------|
|----------|--------------------|
Your mama says...
|------|---------------------|
|------|-/-/-----------------|
|------|-/-/-----------------|
|-5___-|-/-/-------2^0-------|
|------|-/-/-1_-2_----^2_----|
|------|------------------3_-|
I've got to tell you truthful girl...
|------------------------|
|------------------------|
|------------------------|
|-5__-5__--5-5_-------5_-|
|-5__-5__-------5_-3_-5_-|
|------------------------|
Don't the sunrise... (
G
) (
C
)
|-------------|---------------|
|-------------|---------------|
|-------------|---------------|
|-------------|---------------|
|-------------|------0_-2_-3_-|
|-3____-3____-|-3-3_----------|
Like rolling... (
C
) (
D
) (
G
)
|-------------|--------------|
|-------------|--------------|
|-------------|--------------|
|-------------|--------------|
|-3____-5____-|-5-5_-5_------|
|-------------|--------6_-3_-|
(break)
|---------------------|
|---------------------|
|---------------------|
|----------2-1-0_0----|
|---1-2-----------1_--|
|-3_------------------|
|---------------------|
|---------------------|
|---------------------|
|---------------------|
|---1-3----3-3-3-3-1_-|
|-3_------------------|