Chordproc: Tom Petty : Misc

Tom Petty : Misc


  1. American Girl
  2. Breakdown
  3. Don't Come Around Here No More
  4. Free Fallin'
  5. I Need To Know
  6. I Won't Back Down
  7. Into The Great Wide Open
  8. Learning To Fly
  9. Listen To Her Heart
  10. Mary Jane's Last Dance
  11. Runnin' Down A Dream
  12. Something In The Air
  13. Stop Draggin' My Heart Around
  14. The Waiting
  15. You Got Lucky
  16. Zombie Zoo

American Girl

Intro
D
E7
G
A
D
E7
G
A7
Verse 1
D
E7
Well she was an American girl
F
A
Raised on promises
D
E7
She couldn't help thinking that there was
G
A
A little more to life somewhere else
D
After all it was a great big world
G
Em
With lots of places to run to
A
And if she had to die tryin' She had one little promise she was gonna keep
Chorus
G
A
Oh yeah, alright
D
Bm
G
Take it easy baby make it last all night
A
D
She was an American girl
Verse 2
Well it was kinda cold that night She stood alone on the balcony Yeh, she could hear the cars roll by, Out on four-fortyone like waves crashing on the beach And for one des'rate moment there He crept back in her memory God it's so painful when Something that's so close is still so far to reach.
Chorus
Outro
D
G7
A
D
G7
A
D
E7
G
D
D
E7
e|-5-2-0-3-2-0-5-2-0-3-2-0-|--%--|-7-4-0-5-4-0-7-4-0-5-4-0-|--%--| b|-------------------------|--%--|-------------------------|--%--|
G
D
e|-10-7-0-9-7-0-10-7-0-9-7-0-|--%--|-12-9-0-10-9-0-12-9-0-10-9-0-|--%--| b|---------------------------|--%--|-----------------------------|--%--|



Breakdown

Am
G
Am
G
Its alright if you love me,
Am
G
Am
G
Its alright if you don't
Am
G
Am
G
I'm not afraid of you runnin away honey,
Am
G
Fmaj7
I got this feeling you won't
Am
G
Am
G
Say there aint no use in pretending,
Am
G
Am
G
Your eyes give you away
Am
G
Am
G
Something inside you is feeling like I do,
Am
G
Fmaj7
We said all there is to say
Fmaj7
G/f
Am/f
G/f
Am
G
F
G
Breakdown go ahead and give it to me
Am
G
F
G
Breakdown take me through the night
Am
G
F
G
Breakdown go ahead give it to me,
Am
G
Fmaj7
Breakdown its alright,
Fmaj7
G/f
Am/f
G/f
Fmaj7
G/f
Am/f
G/f
Am
G
Am
G
It's alright It's alright



Don't Come Around Here No More

F
Bbsus2
Csus2
Bbsus2
x2
Don't come around here no more
F
Bbsus2
Csus2
Bsus2
Whatever you're looking for
F
Bbsus2
Csus2
Bb
Hey don't come around here no more
C
Am
Cause I've given up
C
Gm
Am
Bb
I've given up
C
Am
Yeah I've given up on waiting any longer
C
Gm
Am
Bb
I've given up all this love getting stronger Don't come around here no more Don't come around here no more I don't feel you any more You darken my door Whatever you're looking for Hey don't come around here no more Cause I've given up I've given up Hey I've given up, you tangle my emotions I've given up, honey please, yeah but it's over Don't come around here no more Don't come around here no more Don't come around here no more Don't come around here no more Stop walking down my street Don't come around here no more Who did you expect to meet Don't come around here no more Whatever you're looking for Don't come around here no more



Free Fallin'

Capo I
E 022100
Asus2 002200
Bsus4/addE 224400
E
Asus2
|
Asus2
E
Bsus4/addE
| %
Lyrics
She's a good girl, loves her mama Loves Jesus and America too She's a good girl, crazy 'bout Elvis Loves horses and her boyfriend too It's a long day livin' in Reseda There's a free-way runnin' through the yard And I'm a bad boy, cause I don't even miss her I'm a bad boy for breakin' her heart
Chorus
And I'm free, I'm free fallin' All the vampires walkin' through the valley Move west down Ventura Boulevard And all the bad boys are standing in the shadows All the good girls are home with broken hearts
Repeat Chorus
Do this little thing:
E -4----4-2---0-2-0--
right before the backing vocals go "Free fallin, yeah I'm free fallin" twice
after the chorus right before the next verse.
I wanna glide down over Mulholland I wanna write her name in the sky I wanna free fall out into nothin' Gonna leave this world for awhile
Chorus
E5
A5
B5
A5



I Need To Know

Intro
E5
E------------------------------------|-----------------------------------|
B------------------------------------|-----------------------------------|
G-9----------------------------------|------------9--7--9----------------|
D-9----------------------------------|------------9--7--9----------------|
A-7----------------------------------|------------7--7--7----------------|
e------------------------------------|-----------------------------------|
E------------------------------------|-----------------------------------|
B------------------------------------|---------------------8--7----------|
G--------9--7--9---------------------|---------------------7--7----------|
D--------9--7--9---------------------|---------------------7--7----------|
A--------7--7--9---------------------|---------------------5--5----------|
e------------------------------------|-----------------------------------|
E------------------------------------|-----------------------------------|
B------------------------------------|-----------------------------------|
G---9---9--7--9----------------------|-----------9--7--9-----------------|
D---9---9--7--9----------------------|-----------9--7--9-----------------|
A---7---7--7--7----------------------|-----------7--7--7-----------------|
e------------------------------------|-----------------------------------|
E------------------------------------|-----------------------------------|
B------------------------------------|---------------------8--7----------|
G--------9--7--9---------------------|---------------------7--7----------|
D--------9--7--9---------------------|---------------------7--7----------|
A--------7--7--9---------------------|---------------------5--5----------|
e------------------------------------|-----------------------------------|
Verse
D5
E------------------------------------|-----------------------------------|
B------------------------------------|-----------------------------------|
G-7----------------------------------|-------------------------7---------|
D-7----------------------------------|---------------7-------------------|
A-5----------------------------------|----5------------------------------|
e------------------------------------|-----------------------------------|
E------------------------------------|----------8---7--------------------|
B-9------9--7--9---------------------|----------7---7--------------------|
G-9------9--7--9---------------------|----------7---7--------------------|
D-7------7--7--7---------------------|----------5---5--------------------|
A------------------------------------|-----------------------------------|
e------------------------------------|-----------------------------------|
Chorus
E5
D5
C5
D5
E5
D5
C5
D5
C5
D5
and then..
E------------------------------------|-----------------------------------|
B------------------------------------|---------------------8--7----------|
G---9----9--7--9---------------------|-----------5---------7--7----------|
D---9----9--7--9---------------------|-----------5---------7--7----------|
A---7----7--7--9---------------------|-----------7---------5--5----------|
e------------------------------------|-----------------------------------|



I Won't Back Down

C#m
B
E
Well I won't back down
C#m
B
E
No I won't back down
C#m
B
A
You can stand me up at the gates of hell
C#m
B
E
But I won't back down Gonna stand my ground Won't be turned around And I'll keep this world from draggin' me down Gonna stand my ground And I won't back down
A
E
A
E
B
Hey baby
E
A
E
B
E
there ain't no easy way out
A
E
B
C#m
B
E
Hey I will stand my ground
C#m
B
E
And I won't back down Well I know what's right I got just one life In a world that keep on pushin' me around But I'll stand my ground and I won't back down Hey baby There ain't no easy way out Hey I will stand my ground and I won't back down And I won't back down No I won't back down



Into The Great Wide Open

The intro and first few bars of the verse
Em
Em?
Em7
Em6
e|---0-----------------|
B|---0-----------------|
G|---0-----------------|
D|---2----1---0--------|
A|---2----2---2---4----|
E|---0----0---0---0----|
Intro Solo
e|--/12~------------------|
B|--------12/10----10/12~-|
G|--------------12--------|
D|------------------------|
A|------------------------|
E|------------------------|
Em
Em?
Em7
Em6
Eddie waited till he finished high school
Em
Em?
Em7
Em6
He went to Hollywood, got a tattoo
Am
Am/g
Am/f#
Am/g
He met a girl out there with a tattoo too
G
F
C
G
C
G
The future was wide open.
Em
Em?
Em7
Em6
They moved into a place they both could afford
Em
Em?
Em7
Em6
He found a nightclub he could work at the door
Am
Am/g
Am/f#
Am/g
She had a guitar and she taught him some chords
G
F
C
G
C
G
G
C
G
D
The sky was the limit.
G
C
Dsus4
G
Em
D
Am
Into the great wide open, under them skies of blue
G
C
Dsus4
G
F
Em
A
Out in the great wide open, a rebel without a clue.
Pre Verse 2 Riff
e|---------12-------------------12-----------------0----------------|
B|------12----15b----15b12-15b------12---5------3-------------------|
G|--14b-------------------------------------2/4-------4/2-0-2--0----|
D|---------------------------------------------------------------2--|
A|------------------------------------------------------------------|
E|------------------------------------------------------------------|
The papers said Ed always played from the heart He got an agent and a roadie named Bart They made a record and it went in the charts The sky was the limit. His leather jacket had chains that would jingle They both met movie stars, partied and mingled. Their A&R man said "I don't hear a single." The future was wide open. Into the great wide open, under them skies of blue Out in the great wide open, a rebel without a clue. Into the great wide open, under them skies of blue Out in the great wide open, a rebel without a clue.
G
C
G
G
C
G



Learning To Fly

F
C
Am
G
Well I started out down a dirty road Started out all alone And the sun went down as I crossed the hill And the town lit up, the world got still I'm learning to fly, but I ain't got wings Coming down is the hardest thing Well the good old days may not return And the rocks might melt and the sea may burn I'm learning to fly, but I ain't got wings Coming down is the hardest thing Well some say life will beat you down Break your heart, steal your crown So I've started out, for God knows where I guess I'll know when I get there I'm learning to fly around the clouds But what goes up must come down I'm learning to fly, but I ain't got wings Coming down is the hardest thing I'm learning to fly around the clouds But what goes up must come down I'm learning to fly I'm learning to fly



Listen To Her Heart

Intro
A
A9
Verse 1
A
G
A
A9
She's gonna ..
G
A
It's gonna ..
E
She might ...
A
A9
But she ..
Bridge.
G
A
And you ..
Fill
Asus4
A
E|-10-9-----
B|-----10---
G|-------9--
D|-X--------
A|-X--------
E|-X--------
G
A
E
Then you ...
Solo over verse chords
E|-0--0--0--0--0--0--0--0--0--0--0--0--0--0--0--0--0--0--0--0--0--0--0--|
B|-15-15-15-14-14-14-14-12-12-10-12-14-14-15-15-15-14-14-14-12-12-10-10-|
G|-x--------------------------------------------------------------------|
D|-x--------------------------------------------------------------------|
A|-x--------------------------------------------------------------------|
E|-x--------------------------------------------------------------------|
E|-0--0--0--0--0--0--0--0--0--0--0--0--0--0--0--0--0--0--0--0--0---|
B|-15-15-15-14-14-14-14-12-12-10-12-14-14-14-15-14-12-12-10-12-10--|
G|-x---------------------------------------------------------------|
D|-x---------------------------------------------------------------|
A|-x---------------------------------------------------------------|
E|-x---------------------------------------------------------------|
Ref
Outro
A
Asus4
A
A9
A



Mary Jane's Last Dance

Intro
Am
G
D
Am
Am
G
She grew up in an Indiana town
D
Am
Had a good lookin' mama who never was around
Am
G
But she grew up tall and she grew up right
D
Am
With them Indiana boys on an Indiana night Well she moved down here at the age of 18 She blew the boys away, it was more than they'd seen I was introduced and we both started groovin' She said, "I dig you baby but I got to keep movin'" ...on, keep movin' on
Chorus
D
Last dance with Mary Jane
A
One more time to kill the pain
D
I feel summer creepin' in and I'm
A
Tired of this town again Well I don't know but I've been told You never slow down, you never grow old I'm tired of screwing up, I'm tired of bein' down I'm tire of myself, I'm tired of this town Oh my my, oh hell yes Honey put on that party dress Buy me a drink, sing me a song, Take me as I come 'cause I can't stay long
Repeat chorus:
There's pidgeons down in Market Square She's standin' in her underwear Lookin' down from a hotel room Nightfall will be comin' soon Oh my my, oh hell yes You've got to put on that party dress It was too cold to cry when I woke up alone I hit the last number, I walked to the road



Runnin' Down A Dream

Signature Riff: (low E string with power E chord)
E|----------------------------------|
G|----------------------------------|
B|----------------------------------|
D|----------------------------------|
A|----------------------------------|
E|--0--7--0--6--0--5--0--3--0-------|
Verse 1
E
It was a beautiful day, the sun beat down
D
E
I had the radio on, I was drivin' The trees went back, me and Del were singin'
D
E
Little Runaway, I was so blind
Chorus
D
G
E
Yeah, Runnin' down a dream
E
G
A
Never would come to me
D
G
E
Workin' on a mystery
E
G
A
Goin' wherever it leads
D
G
E
Runnin' down a dream
Verse 2
E
I felt so good, like anything was possible
D
E
Hit cruise control, and rub my eyes Last three days, the rain was unstoppable
D
E
(It) was always cold, no sunshine
Repeat Chorus
Break
C
(riff)
D
(riff)
E
(riff)
x2
Verse 3
E
I rolled on, the sky grew dark
D
E
I put the pedal down, to make some time There's something good, waiting down this road
D
E
I'm pickin' up, whatever is mine
Repeat chorus x2, then Break part, and add SOLO!



Something In The Air

Tuning: Open E, EBEG#BE.
E 000000
F#m7add4 220100
F# 222222
G#m7add4 442322
G# 444444
A#m7add4 664544
E
| | |
F#m7add4
| | |
E
| | |
F#m7add4
| | |
E
Call out the instigators
F#m7add4
Because theres something in the air
E
Weve got to get together sooner or later
F#m7add4
Because the revolutions here, and you know its...
E |-----------------------------------|
B |-----------------------------------|
G#|------0-------0-------0-------0----|
E |----0-------0-------0-------0------|
B |--5-----5-3-----3-2-----2-0-----0--|
E |-----------------------------------|
...right
E |-----------------------------------|
B |-----------------------------------|
G#|------0-------0-------0-------0----|
E |----0-------0-------0-------0------|
B |--5-----5-3-----3-2-----2-0-----0--|
E |-----------------------------------|
And you know that its right
F#m7add4
We have got to get it together We have got to get it together...
E |-----------------------------------|
B |-----------------------------------|
G#|------0-------0-------0-------0----|
E |----0-------0-------0-------0------|
B |--5-----5-3-----3-2-----2-0-----0--|
E |-----------------------------------|
...Now
E |-----------------------------------|
B |-----------------------------------|
G#|------0-------0-------0-------0----|
E |----0-------0-------0-------0------|
B |--5-----5-3-----3-2-----2-0-----0--|
E |-----------------------------------|
F#
| | |
G#m7add4
| | |
F#
| | |
G#m7add4
| | |
F#
Lock up the streets and houses
G#m7add4
Because theres something in the air
F#
Weve got to get together sooner or later
G#m7add4
Because the revolutions here, and you know its...
E |-----------------------------------|
B |------2-------2--------------------|
G#|----2-------2---------2-------2----|
E |--2-----2-----------2-------2------|
B |----------5-----5-4-----4-2-----2--|
E |-----------------------------------|
...right
E |-----------------------------------|
B |------2-------2--------------------|
G#|----2-------2---------2-------2----|
E |--2-----2-----------2-------2------|
B |----------5-----5-4-----4-2-----2--|
E |-----------------------------------|
And you know that its right
G#m7add4
We have got to get it together We have got to get it together... Instrumental Section.
F#5
F#add6
F#5
F#add6
F#5
F#add6
F#5
F#add6
E |-------------------|-------------------|
B |-------------------|-------------------|
G#|-------------------|-------------------|
E |--2-2-2-2-2-2-2-2--|--2-2-2-2-2-2-2-2--|
B |--2-2-4-4-2-2-4-4--|--2-2-4-4-2-2-4-4--|
E |--2-2-2-2-2-2-2-2--|--2-2-2-2-2-2-2-2--|
...Now
E5
Eadd6
E5
Eadd6
E5
Eadd6
E5
Eadd6
F5
Fadd6
F5
Fadd6
F5
Eadd6
F5
Fadd6
G5
Gadd6
G5
Gadd6
G5
Gadd6
G5
Gadd6
C5
| | |
F5
| | |
C5
| | |
F5
| | |
F5
| | |
F5
| | |
C5
| | |
G5
| | |
C5
| | |
F5
| | |
C5
| | |
F5
| | |
C5
| | |
G#5
G5
G#5
G5
C5
| | |
F5
| | |
G#
| | |
A#m7add4
| | |
G#
| | |
A#m7add4
| | |
G#
Hand out the arms and ammo
A#m7add4
Were going to blast our way through here
G#
Weve got to get together sooner or later
A#m7add4
Because the revolutions here, and you know its...
E |-----------------------------------|
B |------4-------4--------------------|
G#|----4-------4---------4-------4----|
E |--4-----4-----------4-------4------|
B |----------7-----7-6-----6-4-----4--|
E |-----------------------------------|
...right
E |-----------------------------------|
B |------4-------4--------------------|
G#|----4-------4---------4-------4----|
E |--4-----4-----------4-------4------|
B |----------7-----7-6-----6-4-----4--|
E |-----------------------------------|
And you know that its right
A#m7add4
We have got to get it together We have got to get it together
G#



Stop Draggin' My Heart Around

Intro
|
A
Asus4
A
Asus2
|
Asus4
A
Asus2
A
|
breaks
Cadd9
G/b
Cadd9
|
Em
|
G
A
|
Em
|
G
A
| |
Em
|
G
A
|
Em
|
G
A
|
Verse
Em
G
A
Baby, you come knocking on my front door
Em
G
A
Same old line you used to use before
Em
G
A
And I said yeah, well, what am I supposed to do?
Em
G
A
I didn't know what I was getting into
Pre-Chorus
C
D
So you've had a little trouble in town
C
D
Now you're keeping some demons down
Chorus
C
Stop draggin' my
D
Stop draggin' my
Cadd9
G/b
Cadd9
Stop draggin' my heart around
Interlude
|
Em
|
G
A
|
Em
|
G
A
|
Verse
Em
G
A
It's hard to think about what you've wanted
Em
G
A
It's hard to think about what you'd lost
Em
G
A
This doesn't have to be the big get even
Em
G
A
This doesn't have to be anything at all
Verse
Em
G
A
I know you really want to tell me good-bye
Em
G
A
I know you really want to be your own girl
Pre-Chorus
C
D
Baby, you could never look me in the eye
C
D
Yeah, you buckle with the weight of the world
Chorus
C
Stop draggin' my
D
Stop draggin' my
Cadd9
G/b
Cadd9
Stop draggin' my heart around
Instrumental Break
|
Em
|
G
A
| |
D
Dsus4
D
|
Cadd9
G/b
|
D
Dsus4
D
|
Cadd9
G/b
| |
D
Dsus4
D
|
Cadd9
G/b
| |
A
Asus2
Asus4
A
|
Asus2
| |
Cadd9
G/b
|
Cadd9
| |
Em
|
G
A
|
Em
|
G
A
|
Verse
Em
G
A
People running 'round loose in the world
Em
G
A
Ain't got nothing better to do
Em
G
A
Make a meal of some bright eyed kid
Em
G
A
You need someone looking after you
Verse
Em
G
A
I know you really want to tell me good-bye
Em
G
A
I know you really want to be your own girl
Pre-Chorus
C
D
Baby, you could never look me in the eye
C
D
Yeah, you buckle with the weight of the world
Chorus
C
Stop draggin' my
D
Stop draggin' my
Cadd9
G/b
Cadd9
Stop draggin' my heart around
Interlude
|
Em
|
G
A
|
Em
|
G
A
|
Outro
Em
G
A
|
Em
|
G
A
| Stop draggin' my heart around
Em
G
A
|
Em
|
G
A
| Stop draggin' my heart around



The Waiting

A6/f# 222222
Intro
Note: before hitting the G chord play the F# note on the low E string.
Walk the bass notes down and strum!
G
G/f#
Asus4
D
G
G/f#
Asus4
G
G/f#
Asus4
D
G
G/f#
Asus4
A
Verse 1
A
G
D
Oh, baby don't it feel like heaven right now
A
G
D
Don't it feel like something from a dream
A
G
D
Yeah, I've never nothing quite like this
Bm
Don't it feel like tonight might never be again
G
Baby, we know better than to try and pretend
A
Honey, no one could've ever told me about this I said yeh, yeh, yeah yeah yeah yeah
Chorus
G
G/f#
A
D
The waiting is the hardest part
G
G/f#
A
Every day you see one more card
G
G/f#
A
D
You take it on faith, you take it to the heart
G
G/f#
A
D
G
G/f#
A
D
The waiting is the hardest part
Verse 2
Well yeah I might've chased a couple women around All it ever got me was down Yeah, then there were those that made me feel good But never as good as I feel right now Baby you're the only one that's ever known how To make me wanna live like I wanna live now I said yeh, yeh, yeh yeh yeh yeh
Chorus
The waiting is the hardest part Every day you see one more yard You take it on faith, you take it to the heart The waiting is the hardest part
BRIDGE
Bm
A6/f#
Oh don't let 'em kill you babe
Bm
A6/f#
Don't let 'em get to you
Bm
A6/f#
Don't let 'em kill you babe
Bm
A6/f#
Don't let 'em get to you
A
I'll be your bleedin' heart
D
I'll be your cryin' fool
G
Don't let this go too far
F#
Don't let it get to you
Solo
A
G
D
A
G
D
A
G
D
Bm
G
A
Yeh, yeh, yeh yeh yeh yeh The waiting is the hardest part Every day you see one more yard You take it on faith, you take it to the heart The waiting is the hardest part The waiting is the hardest part



You Got Lucky

Intro
Am
Dm
G
E -5--5--5--5--5--5--5--5-|-5--5--5--5--3--3--3--3-|
B -5--5--5--5--5--5--5--5-|-6--6--6--6--3--3--3--3-|
G -5--5--5--5--5--5--5--5-|-7--7--7--7--4--4--4--4-|
D -7--7--7--7--7--7--7--7-|-------------5--5--5--5-|
A ------------------------|------------------------|
E ------------------------|------------------------|
Intro chords
You better watch what you say You better watch what you do to me Don~t get carried away Girl, if you can do better than me
Am
Go
F
Yeah, go But remember
C
Am
Good love is hard to find
C
Am
Good love is hard to find
F
You got lucky, babe
G
You got lucky, babe (Intro chords) When I found you
Intro chords
You put an end on my tear And then you turn your eyes away If you don~t feel complete If I don~t take you all of the way
Am
Then go,
F
Yeah, go, But remember
C
Am
Good love is hard to find
C
Am
Good love is hard to find
F
You got lucky, babe
G
You got lucky, babe When I found you
Solo over the intro chords
Am
Dm
G
Am
Dm
G
E|--------------------------------------|---------------------------------|
B|--------------------------------------|---------------------------------|
G|--------------------------------------|---------------------------------|
D|------5--7----------------------------|------5--7-----------------------|
A|-7~---------7~---5--3--5~---3-2--3--5-|-7~---------7~---5--3--2--0------|
E|--------------------------------------|----------------------------3~~--|
The (~) means to sustain the note
The (~~) means to sustain and keep it warply tremoloed.
Am
Yeah go,
F
Just, go, But remember
C
Am
Good love is hard to find
C
Am
Good love is hard to find
F
You got lucky, babe
G
You got lucky, babe When I found you
Final solo
Am
Dm
G
Am
Dm
G
E|------------------------------------|-----------------------------|
B|------------------------------------|-----------------------------|
G|------------------------------------|----------------5--7--7b-----|
D|------5--7--------------------------|------5--7-------------------|
A|-7~---------7~---5--3--5~-----------|-7~---------7~---------------|
E|------------------------------------|-----------------------------|



Zombie Zoo

Am
F
Am
F
Am
F
A
E
All down the street they're standin' in line
Bm
E
with white lipstick and one thing on their mind
A
E
Hey little freak with the lunch pail purse
Bm
D
Underneath the paint you're just a little girl
E
F#m
D
Dancin' at the Zombie Zoo
E
F#m
A
Dancin' at the Zombie Zoo
E
F#m
D
Painted in a corner and all you wanna do
E
A
D
A
Is dance down at the Zombie Zoo Cute little dropout, how come you pack a rod Is your mother in a clinic? Has your father got no job? Sometimes you're so impulsive, you shaved off all your hair You look like Boris Karloff and you don't even care Dancin' at the Zombie Zoo Dancin' at the Zombie Zoo Painted in a corner and all you wanna do Is dance down at the Zombie Zoo
E
She disappears at sunrise I wonder where she goes
F#m
Until the night
E
Comes fallin' down again She shows up with her friends
F#m
D
Half alive Dancin' at the Zombie Zoo dancin' at the Zombie Zoo You can make a big impression or GO through life unseen You might wind up restricted and over seventeen It's so hard to be careful, so easy to be led Somewhere beyond the pavement you'll find the living dead