Chordproc: Warren Zevon : Covered By Dylan

Warren Zevon : Covered By Dylan


  1. Accidentally Like A Martyr
  2. Boom Boom Mancini
  3. Lawyers Guns And Money
  4. Mutineer

Accidentally Like A Martyr

Performed by Bob Dylan during the fall tour 2002
Dylan is mostly faithful to Zevon's version, with the exception of the first
chord in the third line of the verses, which is rather played something like
this:
Bb C Dm C Bb F/a
Never thought I'd have to pay so dearly
It sounds as if the most pronounced guitar in Dylan's version plays with D-
chords and Capo III. I've included such a version below, as
well as a version with Capo V.
The long chord sequence in the middle of the song is virtually impossible to
play satisfactorily on one guitar: The chords themselves are simple enough, but
you simply can't get both the bass line and the "dut-dut-dut"
figure right at the same time. I've tabbed out a suggestion in the version with
Capo V. Perhaps surprisingly, the uncapoed and Capo III
version sound best, overall, in this respect.
suggestions:
F/a x03211
C/Bb x12010
F/Bb x13211
Eb/Bb 66504x (or 668886, but that doesn't sound as good)
Db/f xx3121
Ab/db x46544
==============================
Lick for the 4th line:
F/bb
Bb
F/bb
Bb
Dm7
: . . . :
|-----------------|-1---
|-1---3---1---3---|-1---
|-2---3---2---3---|-2---
|-3-------3-------|-0---
|-1-------1-------|-----
|-----------------|-----
F
C/e
Dm
F/c
The phone don't ring No, no
Gm7
F/a
Bb
And the sun refused to shine
C/bb
Dm
C
Bb
F/a
Never thought I'd have to pay so dearly Gm F Bb F/Bb-Bb F/Bb-B For what was already mine
Dm7
G7/b
C
For such a long, long time
F
C
We made mad love, shadow love
Bb
F
Random love and abandoned love
F
C
Accidentally like a martyr
Eb/bb
Bb
F
The hurt gets worse and the heart gets harder
repeat chorus
Dm
F
C
F
F/a
F
C
Dm
F
C
F
F/a
F
C
Db/f
Ab/db
Eb
Ab
Db/f
Ab/db
Eb
Db/f
Ab/db
Eb
Ab
Db/f
Ab/db
Eb
F
The days slide by Should have done, should have done, we all sigh Never thought I'd ever be so lonely After such a long, long time Time out of mind We made mad love Shadow love Random love And abandoned love Accidentally like a martyr The hurt gets worse and the heart gets harder
==============================
***** Version with Capo V *****
Capo V
Lick for the 4th line:
C/f
F
C/f
F
Am7
: . . . :
-(1)-|-----------------|-0---
-(1)-|-----------------|-1---
-(2)-|-0---2---0---2---|-0---
-(3)-|-2---3---2---3---|-2---
-(3)-|-----------------|-0---
-(1)-|-----------------|-----
C
G/b
Am
C/g
The phone don't ring No, no
Dm7
C/e
F
And the sun refused to shine
G/f
/g
Am
G
F
C/e
Never thought I'd have to pay so dearly
Dm
C
F
C/f
F
C/f
F
Am7
For what was already mine
D7/f#
G
For such a long, long time
C
G
We made mad love, shadow love
F
C
Random love and abandoned love
C
G
Accidentally like a martyr
Bb/f
F
C
The hurt gets worse and the heart gets harder
Am
C
G
C
C/e
C
G
. : . . . : . . . : . . . .
||-------|-----0-0-0-------|-----3-3-3-------|-----0-0-0------------||
||*--1-1-|-1-----------3-3-|-3---1-1-1---1-1-|-1---1-1-1---3-3-3---*||
||---2-2-|-2---0-0-0---0-0-|-0-----------0-0-|-0-----------0-0-0----||
||-------|-----------------|-----------------|----------------------||
||*------|-----------------|-----------------|---------------------*||
||-------|-----------------|-----------------|----------------------||
Ab/c
Eb/ab
Bb
Eb
Ab/c
Eb/ab
Bb
C
. : . . . : . . . : . . . . . : . . .
||------|-----3-3-3---1-1-|-1---6-6-6-------|-----3-3-3---1-1-1----||-3-3-|-3----
||*-4-4-|-4---------------|-----4-4-4---4-4-|-4-------------------*||-1-1-|-1----
||--1-1-|-1---3-3-3---3-3-|-3---3-3-3---1-1-|-1---3-3-3---3-3-3----||-----|------
||------|-----------------|-----------------|----------------------||-----|------
||*-----|-3---------------|-----------------|---------------------*||-----|------
||------|-----------------|-----------------|----------------------||-----|------
The...
==============================
Capo III
Lick for the 4th line:
D/g
G
D/g
G
Bm7
: . . . :
-(3)-|-----------------|-----
-(0)-|-----0-------0---|-3---
-(0)-|-2---0---2---0---|-2---
-(0)-|-4-------4-------|-4---
-(2)-|-----------------|-2---
-(3)-|-----------------|-----
A/c# x42220
A/g 34222x
Bb/d xx0331
F/Bb x13211
D
A/c#
Bm
D/a
The phone don't ring No, no
Em7
D/f#
G
And the sun refused to shine
A/g
(
/a
)
Bm
A
G
D/f#
Never thought I'd have to pay so dearly
Em
D
G
(
D/g
G
D/g
G
)
Bm7
For what was already mine
E7/g#
A
For such a long, long time
D
A
We made mad love, shadow love
G
D
Random love and abandoned love
D
A
Accidentally like a martyr
C/g
G
D
The hurt gets worse and the heart gets harder
Bm
D
A
D
D/f#
D
A
Bm
D
A
D
D/f#
D
A
Bb/d
F/bb
C
F
Bb/d
F/bb
C
Bb/d
F/bb
C
F
Bb/d
F/bb
C
D



Boom Boom Mancini

Played by Bob Dylan during the fall tour 2002
Capo I
G5 355xxx or xx00xx (or play a straight Em with a G in the
E5 022xxx bass for the first beats in the riff)
D9 xx0210 or x54530
G5
E5
G5
E5
: . . . : . . . : . . . : . . .
|-----------------|-----------------|-----------------|-----------------|
|-----------------|-----------------|-----------------|-----------------|
|-0---------------|---------0-2-----|-0---------------|-----------------|
|-0-----2-----2---|-----2---0-2-----|-0-----2-----2---|-----------------|
|-------2-----2---|-----2-----------|-------2-----2---|-----------------|
|-----------------|-----------------|-----------------|-----------------|
G5
E5
G5
E5
Hurry home early hurry on home
C
G
F#m
E5
Boom Boom Mancini's fighting Bobby Chacon Hurry home early hurry on home Boom Boom Mancini's fighting Bobby Chacon
G5
E5
G5
E5
From Youngstown, Ohio, Ray "Boom Boom" Mancini
G
D
G
D
E5
A lightweight contender, like father like son He fought for the title with Frias in Vegas And he put him away in round number one Hurry home early hurry on home Boom Boom Mancini's fighting Bobby Chacon x2 When Alexis Arguello gave Boom Boom a beating Seven weeks later he was back in the ring Some have the speed and the right combinations If you can't take the punches, it don't mean a thing Hurry home early hurry on home Boom Boom Mancini's fighting Bobby Chacon x2
G
When they asked him who was responsible
D
For the death of Du Koo Kim
C
He said, "Some one should have stopped the fight
D9
E
And told me it was him." They made hypocrite judgements after the fact But the name of the game is be hit and hit back Hurry home early hurry on home Boom Boom Mancini's fighting Bobby Chacon Hurry home early hurry on home Boom Boom Mancini's fighting Bobby Chacon
==============================
This is a more straightforward Em blues of some kind.
Capo III
G
Em
: . . . : . . .
|-----------------|-----------------|
|-----------------|-----------------|
|-0---------------|---------0-2-----| rep.
|-------2-----2---|-----2-----------|
|-----------------|-----------------|
|-----------------|-----------------|
G
Em
G
Em
Hurry home early hurry on home
C
G
D
Em
Boom Boom Mancini's fighting Bobby Chacon Hurry home early hurry on home Boom Boom Mancini's fighting Bobby Chacon
G
Em
G
Em
From Youngstown, Ohio, Ray "Boom Boom" Mancini
G
D
G
D
Em
A lightweight contender, like father like son He fought for the title with Frias in Vegas And he put him away in round number one Hurry home early hurry on home Boom Boom Mancini's fighting Bobby Chacon x2 When Alexis Arguello gave Boom Boom a beating Seven months later he was back in the ring Some have the speed and the right combinations If you can't take the punches, it don't mean a thing Hurry home early hurry on home Boom Boom Mancini's fighting Bobby Chacon x2
Em
G
When they asked him who was responsible
D
For the death of Du Koo Kim
C
He said, "Some one should have stopped the fight
Em
And told me it was him." They made hypocrite judgements after the fact But the name of the game is be hit and hit back Hurry home early hurry on home Boom Boom Mancini's fighting Bobby Chacon Hurry home early hurry on home Boom Boom Mancini's fighting Bobby Chacon



Lawyers Guns And Money

Played live by Bob Dylan on the fall 2002 tour
A
D
A
D
A
A
D
A
E
: . . . : . . . : . . . : . . .
|-----------------|-----------------|-----------------|-0-------0-------|
|-2h3---3-3---2---|-3---3---3-2-----|-2h3---3-3---2---|-0-------0-------|
|-2-----2-2---2---|-2---2---2-2-----|-2-----2-2---2---|-1-------1-------| x2
|-2h4---4-4---2---|-4---4---4-2-----|-2h4---4-4---2---|-2-------2-------|
|-0---------------|-----------------|-----------------|-----------------|
|-----------------|-----------------|-----------------|-----------------|
D
A
E
. . . Well, I went home with the waitress
D
A
D
.
A
. Just like I always do
D
A
E
. . . How was I to know
D
A*
She was with the Russians, too
I was gambling in Havana I took a little risk Send lawyers, guns and money Dad, get me out of this I'm the innocent bystander Somehow I got stuck Between the rock and the hard place
A*
And I'm down on my luck
A*
I'm down on my luck
Now I'm hiding in Honduras I'm a desperate man Send lawyers, guns and money The shit has hit the fan Send lawyers, guns and money...



Mutineer

Performed by Bob Dylan during the fall tour 2002
Below are two versions, with different capo positions. Since Zevon plays the
song with a keyboard arrangement, the chords are only suggestions.
Dylan is generally faithful to Zevon's version, with two small exceptions: he
drops the C#m/g# in the second line, and he simplifies the bass run in the
refrain lines to:
E/g#
-
A
-
B
-
E
==============================
***** Capo I *****
C#m/g# 446654
Asus2 x02200 or 577600
E/g# 422100 or 476x00
==============================
Esus4
E
E
A
Yo ho ho and a bottle of rum
E
C#m/g#
Hoist the mainsail - here I come
A
Asus2
E/g#
/f#
/e
Ain't no room on board for the insincere
E/f#
/g#
You're my witness
A
B
E
I'm your mutineer
I was born to rock the boat Some may sink but we will float Grab your coat - let's get out of here You're my witness I'm your mutineer
B/f#
C#m7/g#
Long ago we laughed at shadows
A
E
C#m
Lightning flashed and thunder followed us
A
Esus4
E
It could never find us here
E/f#
/g#
You're my witness
A
B
E
I'm your mutineer
Long ago we laughed at shadows Lightning flashed and thunder followed us It could never find us here You're my witness I'm your mutineer I was born to rock the boat Some may sink but we will float Grab your coat - let's get out of here You're my witness I'm your mutineer You're my witness I'm your mutineer
==============================
***** Version with Capo V *****
F/c x33211 (or x33210)
Am/e 032210
Fsus2 133011
C/e xx2010
C/d xx0010
==============================
C
F/c
Yo ho ho and a bottle of rum
C
Am/e
Hoist the mainsail - here I come
F
Fsus2
C/e
/d
/c
Ain't no room on board for the insincere
C/d
/e
You're my witness
F
G
C
I'm your mutineer
I was born to rock the boat Some may sink but we will float Grab your coat - let's get out of here You're my witness I'm your mutineer
G/d
Am/e
Long ago we laughed at shadows
F
C
Am
Lightning flashed and thunder followed us
F
Csus4
C
It could never find us here
C/d
/e
You're my witness
F
G
C
I'm your mutineer