Chordproc: Who : Misc

Who : Misc


  1. You Better You Bet
  2. Substitute
  3. Tattoo
  4. Anyway, Anyhow, Anywhere
  5. A Quick One, While He's Away
  6. The Seeker

You Better You Bet

Capo III
Intro
A
D
E
You better you better you bet
Verse 1
A
D
E
I call you on the telephone my voice too rough with cigarettes
A
D
I sometimes feel I should just go home but I'm dealing with a memory that
E
never forgets
A
D
E
I love to hear you say my name especially when you say yes
A
D
I got your body right now on my mind but I've drunk myself blind to the
E
F#m
sound of old T.Rex
Em
D
G
Ab
D
Fmaj7
To the sound of old T Rex
A
Asus2*
E
Oh, and who's next
Chorus
A
D
When I say I love you you say you better
F#m
E
A
You better you better you bet
A
D
When I say I need you you say you better
F#m
E
Bm
You better you better you bet
Bm
F#m
E
You better bet your life
Bm
Or love will cut you
F#m
E
Cut you like a knife
Verse 2
A
D
E
I want those feeble minded axes overthrown
A
D
E
I'm not into your passport picture, I just like your nose
A
D
E
You welcome me with open arms and open legs
A
D
E
I know only fools have needs but this one never begs
F#m
Em
I don't really mind how much you love me
G
Oh a little is all right
D
Fmaj7
When you say come over and spend the night
A
Asus2*
E
Tonight Tonight
Chorus
A
D
When I say I love you you say you better
F#m
E
A
You better you better you bet
A
D
When I say I need you you say you better
F#m
E
Bm
You better you better you bet
Bm
F#m
E
You better bet your life
Bm
Or love will cut you
F#m
E
Cut you like a knife
Bridge
F
C
I lay on the bed with you
G
A
We could make some book of records
F
C
Your dog keeps licking my nose
G
B
F#m
E
And chewing up all those letters saying you better
Bm
Bm
F#m
E
You better bet your life
F#m
E
F#m
You better love me
F#m
E
F#m
all the time now
A
E
A
you better shove me
A
E
A
Back into line now
F#m
E
F#m
You better love me
F#m
E
F#m
all the time now
A
E
A
you better shove me
A
E
A
Back into line now
Verse 3
A
D
E
I showed up late one night with a neon light for a visa
A
D
E
But knowing I'm so eager to fight can't make letting me in any easier
A
D
E
I know I've been wearing crazy clothes and I look pretty crappy sometimes
A
D
E
F#m
But my body feels so good and I still sing a razor line everytime
Em
D
G
And when it comes to all night living
D
I know what I'm giving
Fmaj7
A
I've got it all down to a tee
Asus2*
E
And it's free
Chorus 2
A
D
When I say I love you you say you better
F#m
E
A
You better you better you bet
A
D
When I say I need you you say you better
F#m
E
A
You better you better you bet
A
D
When I say I love you you say you better
F#m
E
A
You better you better you bet
A
D
When I say I need you you scream you better
F#m
E
A
You better you better you bet
Outro
B
E
When I say I love you you say you better
Ab
F#
B
You better you better you bet
B
E
When I say I need you you say you better
Ab
F#
B
You better you better you bet
E
F#
E
F#
You better bet your life
E
F#
Or love will cut you
E
F#
E



Substitute

e|--5-2-5-3-2-|--5-2-5-3-2-|
B|--7-3-5-3-3-|--7-3-5-3-3-|
G|--7-2-6-4-2-|--7-2-6-4-2-|
D|------------|------------|
A|------------|------------|
E|------------|------------|
D
G
D
D/g
D
D
D/g
D
D
You think we look pretty good together
D
G
D
D/g
D
D
D/g
D
D
You think my shoes are made of leather
Em
G
D
Em
G
D
But I'm a substitute for another guy
G|----------------------------------|
D|----2-------0------2-----------0--|
A|--------0/2----------------0/2----|
E|-0-----3---------0------3---------|
Em
G
D
Em
G
D
I look pretty tall but my heels are high
Em
G
D/a
Em
G
D
The simple things you see are all complicated
Em
G
D
Em
G
D
A
D/a
A
I look pretty young but I'm just back-dated yeah
D2
D
A/d
G/d
G/d
D
Substitute lies for fact
D2
D
A/d
G/d
G/d
D
I can see right through your plastic mac
D2
D
A/d
G/d
G/d
D
I look all white, but my dad was black
D2
D
A/d
G/d
G/d
D
My fine-looking suit is really made out of sack



Tattoo

Bb(b5) xx8760
Fmaj7 xx7560
Cadd9 xx5530
Bb* xx3310 Bbsus2(b5)
D/C# x4x232
G6/B x20032
A6sus4 (D/A) x00232 or x02232
Dadd2 xx0230
D xx0232
G 3x0033
A5 x02255
Intro and verse pattern
|
Bb(b5)
|
Fmaj7
|
Cadd9
|
Bbsus2(b5)
|
Bbsus2(b5)
|
|---0-----0--|---0-----0--|---0-----0--|---0-----0--|---0-----0--|
|--6-6---6-6-|--6-6---6-6-|--3-3---3-3-|--1-1---1-1-|--1-1---1-1-|
|-7-----7----|-5-----5----|-5-----5----|-3-----3----|-3-----3----|
|8-----8-----|7-----7-----|5-----5-----|3-----3-----|3-----3-----|
|------------|------------|------------|------------|------------|
|------------|------------|------------|------------|------------|
Bb(b5)
|
Fmaj7
Me and my brother were talking to each other |
Cadd9
Bb*
|
Dadd2
| About what makes a man a man
|---0----0----|
|--3-3--3-2---|
|-2----2------|
|0----0-------|
|-------------|
|-------------|
|
Bb(b5)
|
Fmaj7
Was it brain or brawn, the month you were born |
Cadd9
Bb*
|
Dadd2
|
D
We just couldn't understand |
D
G
|
D
D
Dsus4
D
Our old man didn't like our appearance |
D
G
|
Asus4
A5
He said that only women wear long hair
|
Bb(b5)
|
Fmaj7
So me and my brother borrowed money from mother |
Cadd9
|
Bb*
Dadd2
We knew what we had to do |
Bb(b5)
|
Fmaj7
We went downstairs, past the barber and gymnasium |
Cadd9
|
Bb*
Dadd2
|
D
| And got our arms tattooed
|
D
D
|
D
Dsus4
D
| Welcome to my life, tattoo
|----------------------|----2-3-2----|
|3-------------3-------|----3-3-3----|
|2-------------2-------|----2-2-2----|
|0-------------0-------|0---0-0-0----|
|---4----2--0-----4-2-0|-------------|
|----------------------|-------------|
|
D
D
|
D
Dsus4
D
| I'm a man now, thanks to you | % | % |
|
D
D/c#
I expect I'll regret you |
G6/b
A6sus4
But the skin graft man won't get you |
G
|
A5*
|
A5
|
Bb(b5)
|
Fmaj7
|
Cadd9
|
Bb*
| | You'll be there when I die tattoo
note: A5* played as Asus4 in stage versions
My dad beat me 'cause mine said mother But my mother naturally liked it and beat my brother 'Cause his tattoo was of a lady in the nude And my mother thought that was extremely rude Welcome to my life, tattoo We've a long time together, me and you I expect I'll regret you But the skin graft man won't get you You'll be there when I die, tattoo Now I'm older, I'm tattooed all over My wife is tattooed, too A rooty-toot-toot, rooty-tooty-tooty-toot



Anyway, Anyhow, Anywhere

Intro
|
D
|
C
A
|
D
G
A
I can go anyway, way I choose
D
G
A
I can live anyhow, win or lose
D
G
A
I can go anywhere, for something new
D
G
C
G
A
Anyway, anyhow, anywhere I choose
I can do anything, right or wrong I can talk anyhow, and get along Don't care anyway, I never lose Anyway, anyhow, anywhere I choose
G(iii)
-
A(v)
A
.... Nothing gets in my way Not even locked doors Don't follow the lines That been laid before I get along anyway I dare Anyway, anyhow, anywhere
Instrumental
A
....
A(xii)
G(x)
A(xii)
I can go anyway, way I choose I can live anyhow, win or lose I can go anywhere, for something new Anyway, anyhow, anywhere I choose Anyway Anyway I choose, yeah Anyway I wanna go, I wanna go 'n do it myself, Do it myself Do it myself, yeah Anyway, way I choose Anyway I choose Yeah, yeah Ain't never gonna lose the way I choose The way I choose



A Quick One, While He's Away

D xx0232 Fsus4/C 1(3)3311
G/D xx0433 Cadd2 x30010
D7 xx0535 G6sus4 3x2010
G 3x0003 and 3x0033 A7sus4 x02233
C/G 3x2013 D/A x002xx
G7 xx3033 D/C x302xx
A6 x02222 D5 xx0235
Bm7 x24232 and 7x7777 G5 3x00xx
Gadd9/B 3x0233 A5 x022xx
Am x02210
Her Man's Been Gone
Her man's been gone for nearly a year He was due home yesterday but he ain't here Her man's been gone for nigh on a year He was due home yesterday but he ain't here
Crying Town
Intro
D
G/d
D7
G/d
D
G/d
D7
x2
|-----2-----3---|--5-----3-----|----2-----3----|5-------|
|------------3--|----3-----3---|------------3--|3-------|
|.--2----/4---4/|5-----5-----4-|--2----/4----4/|5------.|
|.0----0--------|-------0------|0----0---------|0------.|
|---------------|--------------|---------------|--------|
|---------------|--------------|---------------|--------|
|
D
G/d
|
D7
G/d
|
D
G/d
|
D7
G/d
| Down your street your crying is a well-known sound |
D
G/d
|
D7
G/d
|
D
G/d
|
D7
| Your street is very well-known, throughout your town |
G
C/g
|
G7
C/g
|
G
C/g
|
G7
C/g
| Your town is very famous for the little girl |
D
G/d
|
D7
G/d
|
D
G/d
|
D7
G/d
| Whose crying can be heard all around the world
x2
|
D
G/d
|
D7
G/d
|
D
G/d
|
D7
G/d
| Ooh ooh ooh ooh ooh ooh ooh ooh Ooh ooh ooh ooh ooh
We Have A Remedy
A
Asus2
Asus4
...
|-------------0----|--------0-0---|
|---2-0-2-3-0-2----|--0-3-0-2-2---|
|.--2-2-2-2-2-2----|--2-2-2-2-2--.|
|.--2-2-2-2-2-2----|--2-2-2-2-2--.|
|-0-------------(0)|0-------------|
|------------------|--------------|
|
A
A
|
A
| Fa la la la la la Fa la la la la Fa la la la la la Fa la la la la
|
A6
A
|
A6
| We have a remedy you'll appreciate, |
A
A
|
A
| No need to be so sad, he's only late |
D
D
|
D
| We'll bring you flowers and things, help pass your time |
D
| We'll give him eagle's wings |
D
|
A
Asus4
|
Asus2
A
|
E
Esus4
|
E7
Then he can fly to you
|--------------------|----------|---------|---4--5-----|7-----|
|--------------------|-2---3----|0------2-|----5---5---|5-----|
|--------------------|--2---2---|2------2-|-/4-------6-|7-----|
|--------------------|----2--2--|2------2-|------------|------|
|--------------------|0--------0|-------0-|------------|------|
|--------------------|----------|--------0|0-----------|------|
|
E
E
E
|
E
| Fa la la la la la Fa la la la la |
A
A
A
|
A
| Fa la la la la la Fa la la la la Fa la la la la la Fa la la la la
|
E
Esus4
|
E
|
D
Dsus4
|
D
| La
|-4--5-5---|-4--5---4-|---2--3-2---|-3-2--3-2-|
|--5-5-5---|--5-5-5---|---3--3-3---|-3-3--3-3-|
|4---4-4---|4---4-----|-2-2--2-2---|-2-2----2-|
|----------|----------|-0-0--0-0---|-----0----|
|----------|----------|------------|----------|
|----------|----------|------------|----------|
|
A
A
A
|
A
A
A
|
x4
We have a remedy Fa la la la la la la
Spoken
A
We have a remedy. We have!
E
D
Little girl (guide), why don't you stop your crying?
Asus4
A
I'm gonna make you feel all right
Ivor The Engine Driver
E
x2
|------------------|
|------------------|
|.----------------.|
|.--2---2---2---2-.|
|-----2-------2----|
|-0-------0--------|
|
E
|
B
D
|
E
| My name is Ivor, I'm an engine driver
|--------------------|-----------------------|------------------|
|--------------------|-----------------------|------------------|
|--------------------|--4---4---7--------7---|------------------|
|--2---2---2-------2-|----4------------7-----|---2---2----2---2-|
|----2--------2------|2------/5--------------|-----2--------2---|
|0-------0-----------|-----------------------|0--------0--------|
|
E
|
B
D
|
E
I know him well, I know why you feel blue
|-----------------------|--------------------|--------------
|-----------------------|--------------------|--------------
|-----------------------|--4---4---7------7--|---9--------9-
|--2------2---2------2--|----4-------7-------|--------9-----
|----2----------2-------|2------/5-----------|7-------------
|0----------0-----------|--------------------|--------------
E
|
B
D
|
E
Just 'cause he's late don't mean he'll never get through
------------------|--------------------------|------0-----------0-0-
------------------|--------------------------|------0-----------0-0-
--9-----------9---|--4---4---7----------7----|------1-----------2-1-
-------9----------|----4-----------7---------|------2-----------2-2-
7-----------------|2------/5-----------------|------2-----------2-2-
------------------|--------------------------|0---------------------
|
A
|
E
He told me he loves you, he ain't no liar, I ain't either |
B
|
D
E
E
Esus4
|
E
|
E
So let's have a smile for an old engine driver |
B
|
D
E
E
Esus4
|
E
|
E
So let's have a smile for an old engine driver
Please take a sweet (take a sweet) Come take a walk with me (take a walk with me) We'll sort it out (sort it out) Back at my place (back at my place, maybe) It'll come right, you ain't no fool, I ain't either So why not be nice to an old engine driver? Better be nice to an old engine driver Better be nice to an old engine driver
Soon Be Home
C
Dm7
|------------------|------------------|
|------------------|------------------|
|.--0-2-0---0-2-0-.|.--0-2-0---0-2-0-.|
|.----------------.|.0-------0-------.|
|-3-------3--------|------------------|
|------------------|------------------|
|
C
| | | We'll soon be home, we'll soon be home |
Dm7
| |
C
| | We'll soon, we'll soon, soon, soon be home We'll
Come on, old horse Soon be home, soon be home We'll soon, soon, soon be home We'll soon, we'll soon, soon, soon be home
You Are Forgiven
|
D
|
A
|
C
|
Gadd9/b
|
F
|
Fsus4/c
|
Esus4
|
A
Dang, dang, dang, dang, dang, dang, dang, dang
|
D
|
Asus4
|
D
|
Asus4
A
| |
D
|
Asus4
A
|
x4
Cello, cello, cello, cello, cello, cello, cello, cello
|
D
D
D
D
|
Asus4
A
|
D
D
D
D
|
Asus4
I can't believe it Do my eyes deceive me?
A
|
D
D
D
D
|
Asus4
A
|
D
D
D
Dsus4
|
D
| Am I back in your arms? Away from all harm?
|
Cadd2
| |
D
D
D/a
D/c
D
D/c
|
D
D
It's like a dream to be with you again
|-----------|---------|2--2---------------|-2-2------
|1-111-1111-|1111-1111|3--3---------------|-3-3------
|0-000-0000-|0000-0000|2--2----------2----|-2-2------
|0-000-0000-|0000-0000|0--0--0---0---0-0--|-0-0------
|3-333-3333-|3333-3333|------0---3-----3--|----------
|-----------|---------|-------------------|----------
palm mute
|
Cadd2
| |
D
D
D/a
D/c
D
D/c
|
D
D
Can't believe that I'm with you again
|
D
D
D/a
D/c
D
D/c
|
D
D
| Mow mow ma--mow-ma-mow mow mow
|D5 (palm mute)| Dsus4 (palm mute) | |
D
|
Asus4
A
|
D
|
Asus4
A
I missed you and I must admit I kissed a few and once did sit |
Cadd2
|
G6sus4
|
Cadd2
|
G
|
D
D
D
| On Ivor the Engine Driver's lap and later with him, had a nap
|
G
A7sus4
|
D
D
D
|
x4
repeat w/ below fills
|
G5
A5
|
D
|
G5
A5
|
D
| You are forgiven You are forgiven (you are for-giv....en) (you are for-)
Fills
|
G
A
|
D
|
G
A
|
D
| ...baby
|----------------|----------||--------------|---------||
|---12------14---|---15~----||--------------|3---*----||
|-----12------14-|----------||.-------------|2-------.||
|/12-----/14-----|-0--------||.-------------|0-------.||
|----------------|----------||---2-5----4-7-|---------||
|----------------|----------||/3-----/5-----|---------||
*toggle pickup selector
|
G
Asus4
A
|
D
D
D
C
D
C
|
G
G
A
A
| [pause] You are for- (You are forgiven..............
|
D
|
G
G
A
A
| -given You are for- (You are forgiven..............
|
D
|
G5
A5
|
D
D
| -given forgiven Forgiven Forgiven Forgiven Forgiven For- (you are forgiven........ (you are forgiv-
(end) (spoken)
|
G
G
A
A
|
D
|
A
D
Know you're forgiven You're all forgiven



The Seeker

Intro
A
G
D
A
G
D
C
G
A
G
D
A
G
D
Verse 1
A
G
D
I looked under chairs
A
G
D
I looked under tables
A
G
D
I try to find the key
A
To fifty million fables
Chorus
D
Dsus4
They call me the seeker
D
I've been searchin' low and high
A
G
A
G
D
C
C
G
I won't get to get what I'm after
Till the day I die
Verse 2
A
G
D
A
G
D
A
G
D
I asked Bobby Dylan
A
G
D
I asked the Beatles
A
G
D
I asked Timothy Leary
A
But he couldn't help me either
Chorus
D
Dsus4
They call me the seeker
D
I've been searchin' low and high
A
G
D
A
G
D
C
C
I won't get to get what I'm after
G
Till the day I die
Bridge 1
A
G
D
A
G
D
D
Dsus4
People tend to hate me
D
Cause I never smile
A
As I ransack their homes they wanna shake my hand
D
Dsus4
Focusin' on nowhere
D
Investigatin' miles
E
I'm a seeker I'm a really desperate man
Guitar solo
D
C
I won't get to get what I'm after
G
Till the day I die
Bridge 2
A
G
D
A
G
D
D
I learned how to raise my voice in anger
A
Yeah but look at my face, ain't this a smile
D
Dsus4
D
I'm happy when life's good, and when it's bad I cry
E
I got values but I don't know how or why
Verse 3
A
G
D
I'm lookin' for me
A
G
D
You're lookin' for you
A
G
D
A
We're lookin' at each other and we don't know what to do
Chorus
D
Dsus4
They call me the seeker
D
I've been searchin' low and high
A
G
A
G
D
C
C
I won't get to get what I'm after
G
Till the day I die
D
C
G
A