Chordproc: Who : Tommy

Who : Tommy


  1. Overture
  2. It's A Boy
  3. You Didn't Hear It (1921)
  4. Amazing Journey
  5. Sparks
  6. Eyesight To The Blind (The Hawker)
  7. Christmas
  8. Cousin Kevin
  9. Acid Queen
  10. Underture
  11. Do You Think It's Alright?
  12. Fiddle About
  13. Pinball Wizard
  14. There's A Doctor I've Found
  15. Go To The Mirror Boy
  16. Tommy Can You Hear Me
  17. Smash The Mirror
  18. Sensation
  19. Miracle Cure
  20. Sally Simpson
  21. I'm Free
  22. Welcome
  23. Tommy's Holiday Camp
  24. We're Not Gonna Take It

Overture

Fm6/9/Ab 4x6533 or 4x3533 (intro)
C/G 3x2013
Gm 355333
A7 57765x (Go to the mirror)
Dm xx7765 (Go to the mirror)
Csus4 8xAA8x (Go to the mirror)
C(iix) 8xA98x (Go to the mirror)
E5 022xxx and 022400
F5 133xxx
Ab7 466544 (7th implied by piano)
C#m xx6654
Bsus4 7x9977
B(vii) 7x9877
Gsus4 3x5533 (Pinball wizard)
G 3x5433 (Pinball wizard)
Fsus4 1x3311 (Pinball wizard)
F 1x3211 (Pinball wizard)
C
C/bb
Am*
Fm6/9/ab*
C/g
C
G*
G
|------|------|-0-----|-3-------|-0----|------|-3----|-3----|
|-5----|-5----|-1-----|-3-------|-1----|-1----|-3----|-3----|
|-5----|-5----|-2-----|-5-------|-0----|-0----|-0----|-0----|
|-5----|-5----|-2-----|-3-------|-2----|-2--2-|-0----|-0----|
|------|------|-0-----|---------|-3----|-3--3-|------|------|
|-8----|-6----|-------|-4-------|-3---3|----3-|-3---3|-3----|
Ebmaj7
Bb*
Bb
Gm
Dsus4
D
|-3----|------|-3----------|-3----|-----3-|-3----|-2----|
|-3----|-3----|-3--------3-|-3----|-----3-|-3----|-3----|
|-3----|-3----|-3--------3-|-3----|-----3-|-2----|-2----|
|-5----|-5----|-3-----3--3-|-5----|-5-----|-0----|-0----|
|-6----|----6-|-5-----5----|-5----|-5-----|------|------|
|------|------|-------6---3|-3---3|-3----2|------|------|
|
Gm
. . . |
Gm
. . . |
We're Not Gonna Take It
|
G
. . . .
C
|
C
G
F
C
|
x4
||-3-3-3-3-3-----|-----------------||
||-3-3-3-3-3-----|-----------1--1--||
||.0-0-0-0-0-----|---0---0---2--0-.||
||.0-0-0-0-0---2-|-2-2---0---3--2-.||
||-------------3-|-3---------3--3--||
||-3-3-3-3-3-----|-------3---------||
| (
G
)
G
| (
C/g
)
C/g
| (
G
)
G
|
C/g
|
--|---------3---|------------3---|---------3--|-3----|
--|---------0---|------------1---|---------0--|-1----|
--|-0-0-0-0-0---|--0-0-0-0-0-0---|-0-0-0-0-0--|-0----|
--|-0-0-0-0-0--0|-/2-2-2-2-2-2---|-0-0-0-0-0--|-2----|
--|-------------|----------------|------------|------|
-3|-3-3-3-3-3--3|--3-3-3-3-3-3--3|-3-3-3-3-3--|-3----| (palm mute)
[Go To The Mirror] x4 x2 |
G
.
D
C
| |
F
.
C
Bb
|
||----3-3-3---2----3---|| ||---(1)(1)(1)-------------||
||----3-3-3---3----1---|| ||---(1)(1)(1)---(5)--(3)--||
||.---0-0-0---2----0--.|| ||.--(2)(2)(2)----5----3--.||
||.---0-0-0---0----2--.|| ||.---3--3--3-----5----3--.||
||-----------------3---|| ||----3--3--3-----3----1---||
||--3-----3-------(3)--|| ||-1--1--1--1--------------||
(
Bb
) |
F
C
Bb
|
F
C
Bb
|
F
C
Bb
|
F
C
Bb
| |
A7
|
Dm
C
|
Bb
|
Csus4
| |
C(iix)
| |
See me, Feel me
|
Ebmaj7
|
Fsus4
F
|
Fsus4
F
|
G
|
|-3-------|-1----1---|-1----1---|-3----|
|-3-------|-1----1---|-1----1---|-0----|
|-3-------|-3----2---|-3----2---|-0----|
|-1-------|-3----3---|-3----3---|-0----|
|---------|----------|----------|------|
|---------|----------|----------|------|
Ahh...
|
Ebmaj7
|
Fsus4
F
|
Fsus4
F
|
|-3-------|-1----1---|-1----1---|
|-3-------|-1----1---|-1----1---|
|-3-------|-3----2---|-3----2---|
|-1-------|-3----3---|-3----3---|
|---------|----------|----------|
|---------|----------|----------|
|
Em
| |
B7sus4
|
B
|
|(0)--------------|-0---------------|(5)--------------|---------------|
|(0)--------------|-0---------------|(5)--------------|(4)------------|
|(0)--------------|-0---------------|-4-4-4-4-4-4-4-4-|-4-4-4-4--4--4-|
|(2)--------------|-2---------------|-4-4-4-4-4-4-4-4-|-4-4-4-4--4--4-|
|(2)------2-2-2-2-|-2-------------0-|-2-2-2-2-2-2-2-2-|-2-2-2-2--2--2-|
|-0-0-0-0-0-0-0-0-|-0-0-0-0-0-0-0---|-----------------|---------------|



It's A Boy

gtr 1: Standard tuning: EADGBE
gtr 2: Dropped D tuning: DADGBE
G x20003 (outro)
Em7 020030 (outro)
A5 x02255 (outro)
Note: leads and strumming patterns are approximate.
Gtr 1
|
Dsus2
|
D/b
D/c
|
|-----0-----------0-----|-------0------------------|
|-----3-----------3-----|-------3---------3------3-|
|-----2-----------2-----|-------2---------2------2-|
|-0-0---0-0---0-0---0-0-|---0-0---0-0-----0------0-|
|-----------3-----------|-3-----------2-2----3-3---|
|-----------------------|--------------------------|
|
Dsus2
|
D/b
D/c
|
|-----0-----------0-----|-------0------------------|
|-----3-----------3-----|-------3---------3------3-|
|-----2-----------2-----|-------2---------2------2-|
|-0-0---0-0---0-0---0-0-|---0-0---0-0-----0------0-|
|-----------3-----------|-3-----------2-2----3-3---|
|-----------------------|--------------------------|
|
Dsus2
|
D/c
D/b
|
|-----0-----------0-----|-------0------------------|
|-----3-----------3-----|-------3---------3------3-|
|-----2-----------2-----|-------2---------2------2-|
|-0-0---0-0---0-0---0-0-|---0-0---0-0-----0------0-|
|-----------3-----------|-3-----------3-3----2-2---|
|-----------------------|--------------------------|
MAIN pattern
|
D
D
(
C
)
D
D
| (
C
)
D
D
Cadd9
G/b
|
|-2--2-----2--2-|----(2)(2)------0------|
|-3--3-----3--3-|-----3--3-------3-(3)--|
|-2--2-----2--2-|-----2--2-2/2---0-(0)--|
|-0--0-----0--0-|-----0--0-0/0---0--0---|
|-------3-------|--3-----------3----2-0-|
|---------------|-----------------------|
Verse
D
(
C
)
D
(
C
)
D
D
Cadd9
G/b
Captain Walker didn't come home, his unborn child will never know him.
|
D
D
C
D
D
|
C
D
D
Cadd9
G/b
|
D
C
Dsus2
C
Dsus2
Cadd9
G/b
Believe him missing with a number of men. Don't expect to see him again.
fade in gtr 2; fade out gtr 1
|
D
D
(
C
)
D
D
| (
C
)
Dsus2
Dsus2
(
C
)
Dsus2
Dsus2
| (
C
)
Dsus2
Dsus2
|
Cadd9
|
Solo
|
E/d
|
D
|
|-4-4-4-4-4-4-4-4-4-4-4-4-|-2-2-2-2-2-2-2-2-2-2--2-2-|
|-5-5-5-5-5-5-5-5-5-5-5-5-|-3-3-3-3-3-3-3-3-3-3--3-3-|
|-4-4-4-4-4-4-4-4-4-4-4-4-|-2-2-2-2-2-2-2-2-2-2--2-2-|
|-0-0-0-0-0-0-0-0-0-0-0-0-|-0-0-0-0-0-0-0-0-0-0--0-0-|
|-------0-----0-----0-----|-0-----0-----0-----0------|
|---0---------------------|-0------------------------|
|
E/d
|
D
|
|-4-4-4-4-4-4-4-4-4-4--4-4-|---2-------2---2---|
|-5-5-5-5-5-5-5-5-5-5--5-5-|---3-------3---3---|
|-4-4-4-4-4-4-4-4-4-4--4-4-|---2-------2---2---|
|-0-0-0-0-0-0-0-0-0-0--0-0-|-0-0---0-0-0---0---|
|-0-----0-----0-----0----0-|-0-0---0-0-----0-0-|
|-0-0---0-----0-----0----0-|-0-----------------|
Chorus
|
D
|
Cadd9
G/b
|
Dsus2
| |
|---2-----2-----0-|---0------0-----|-------------0/0-|-0-------------|
|-----3-----3-----|-----3----3-3---|-3-----------3/3-|-3-------3-3---|
|-------2-----2---|------------0---|-2-2-2-2-2-2-2/2-|-2---2-2-2-2-2-|
|-0---------------|----------------|-0-0-0-0-0-0-0/0-|-0-0-0-0-0-0-0-|
|-----------------|-3------2-------|-0---------------|---------------|
|-----------------|-------------3^-|-0---------------|---------------|
|
Dsus2
Cadd9
G/b
|
Dsus2
| | It's a boy, Mrs. Walker, it's a boy
|--2---0--0|--------------|--0--0--0-|---0--0-----|
|---3---3--|-----3-----3--|---3--3---|----3--3----|
|----2---2-|---0--0--0----|----2--2--|-----2--2---|
|-0--------|--------------|0---------|-0-------0--|
|----------|3-------2-----|----------|------------|
|----------|------------3^|----------|------------|
|
Dsus2
Cadd9
G/b
|
Dsus2
| | It's a boy, Mrs. Walker, it's a boy |
G
|
Em7
|
A5
A son! A son! A son!



You Didn't Hear It (1921)

Eb/D x5888x G7 3x0001
E7/ab 4x0434 Bbsus4 6x886x
C/G 3x2013 Bb 6x876x
C7/bb 6x5556
Intro
|
C
|
G/b
|
C/bb
|
C/a
|
C/ab
|
C/g
|
|----------------------|-----|-----|-5---|------|-----|
|-5--------------------|-----|-----|-5---|-5----|-5---|
|-5--------------------|-5---|-5---|-5---|-5----|-5---|
|-5--------------------|-5---|-5---|-5---|-5----|-5---|
|----------------------|-----|-----|-----|------|-3---|
|-8--------------------|-7---|-6---|-5---|-4----|-3---|
|
Dsus4/f#
|
Gsus4
|
G
|
|--------------------|-3-----3--|-3-3--3---|
|--------------------|-3-----3--|-3-3--3---|
|--------------------|-5-----5--|-5-5--4---|
|-5-------5--5-------|-5-----5--|-5-5--5---|
|-5-------5--5----0--|----------|----------|
|-2-------2--2------2|-3---3-3--|-3-3--3---|
Verse pattern
Gsus4
|
G
x2
--||------3-------3--|-----3-------3---||
--||----3---3---3---3|---3---3---3---3-||
--||.-5-------5------|-4-------4------.||
-5||.----------------|----------------.||
--||-----------------|-----------------||
--||-----------------|-----------------||
Gsus4
G
|
Gsus4
G
| Got a feeling twenty-one is gonna be a good year
Gsus4
G
|
Gsus4
G
| Especially if you and me see it in together.
Eb
Bbsus4
Bb
|
Eb
Bbsus4
Bb
| So you think twenty-one is gonna be a good year
Eb
Bbsus4
Bb
|
Eb
Eb
Eb/d
| Could be good for me and her but you and her, no never.
Cm
Cm(maj7)
Cm7
Cm(maj6)
I had no reason to be over-optimistic but
|-8--------|-8-------------------|-8-------|-8------|
|-8--------|-8-------------------|-8-------|-8------|
|-8---/----|-8------------/------|-8-----/-|-8--/---|
|-10-------|-9-------------------|-8-------|-7------|
|----------|---------------------|---------|--------|
|----------|---------------------|---------|--------|
Abmaj7
Bbsus4
Bb
Gsus4
G
Somehow when you smile I can brave bad weather.
|8---------------|--------------------|-6------6---|3-------3-------|
|8---------------|--------------------|-6------6---|3-------3-------|
|8-------/-------|-/----------/-------|-8---/--7-/-|5-/-/-/-4---/-/-|
|6---------------|--------------------|-8------8---|5-------5-------|
|----------------|--------------------|------------|----------------|
|----------------|--------------------|-6T-----6T--|3T------3T------|
G
C/g
G7
C/g
What about the boy? What about the boy?
G
C/g
G7
G
C
What about the boy? He saw it all
F
D7/f#
You didn't hear it, you didn't see it. You won't say
G(iii)
E7/ab
You won't say nothing to no one never in your life
Am(v)
C7/bb
You never heard it, how absurd it all seems
Bb
F
Without any proof
You didn't hear it, you didn't see it You never heard it, not a word of it You won't say nothing to no one, never tell a soul What you know is the truth
C/g
G7
|
Gsus4
G
|
Gsus4
G
| Got a feeling twenty-one is gonna be a good year
|---------3--------------------3----------|
|------3----3----------------3---3--------|
|---5----------5------5----4-------4----4-|
|-5---------------5------5------------5---|
|-----------------------------------------|
|-----------------------------------------|
Gsus4
G
|
Gsus4
G
| Especially if you and me see it in together.
|
Ebsus2
Bbsus4
Bb
|
Ebsus2
Bbsus4
Bb
| Got a feeling twenty-one is gonna be a good year
|---------6---------------------6---------|
|-------6----6---------------6----6-------|
|---8-----------8----8-----7--------7---7-|
|-8---------------8------8------------8---|
|-----------------------------------------|
|-----------------------------------------|
Ebsus2
Bbsus4
Bb
|
Eb
Eb
Eb/d
| Especially if you and me see it in together.
Cm
Cm(maj7)
|
Cm7
Cm(maj6)
I had no reason to be over-optimistic |
Abmaj7
|
Bbsus4
|
Bb
| But somehow when you smiled I could brave bad weather
Outro
Eb
Absus4/eb
Abm/eb
x4
Eb
What about the boy?
||--3----------|----4---------4---||
||--4----------|----4---------4---||
||.-3----------|----6---------4--.||
||.-5----------|----6---------6--.||
||-------------|------------------||
||-------------|------------------||



Amazing Journey

G7/F 353433 C x32013 (verse open chord)
Cmaj7/E x3545x G 3x0033 (verse open chord)
Cm/Eb x3534x A5 x022xx (verse open chord)
D7sus4 xx0213 and xx7788 E 022400 (verse open chord)
G xx9787 (bridge) D xx0232 (verse open chord)
D xx777x (bridge) A x0222x (verse open chord)
Dsus4 xx778x (bridge)
E5 02xxxx C5 x355xx
Bb5 x133xx G5 355xxx
F5 133xxx A7 x05050
Intro pattern
C
G
A
E
D
A
D/a
A
C
|---8--|-7----5-|-4----2-|-0----x-|-x-----8-|
|---8--|-8----5-|-5----3-|-2----3-|-2-----8-|
|---9--|-7----6-|-4----2-|-2----2-|-2-----9-|
|---10-|-9----7-|-6----0-|-2----4-|-2----10-|
|------|--------|--------|-0----0-|-0-------|
|------|--------|--------|--------|---------|
gtr2
|---8--|-7----5-|-4----2-|------2-|-------8-|
|------|--------|--------|-2------|-2-------|
|---9--|-7----6-|-4----2-|------2-|-------9-|
|------|--------|--------|-2------|-2-------|
|------|--------|--------|--------|---------|
|------|--------|--------|--------|---------|
G
A
E
D
A
D/a
A
D/a
A
D/a
A
C
|-7----5-|-4----2-|-0------|-0------|-0------|-------8-|
|-8----5-|-5----3-|-2----3-|-2----3-|-2----3-|-2-----8-|
|-7----6-|-4----2-|-2----2-|-2----2-|-2----2-|-2-----9-|
|-9----7-|-6----0-|-2----4-|-2----4-|-2----4-|-2----10-|
|--------|--------|-0----0-|-0----0-|-0----0-|-0-------|
|--------|--------|--------|--------|--------|---------|
|
A7
|
|-7----5-|-4----2-|--------|--------|--------|-------8-|
|--------|--------|-2----2-|-2----2-|-5----2-|-2-------|
|-7----6-|-4----2-|--------|--------|--------|-------9-|
|--------|--------|-2----3-|-2----3-|-5----3-|-2-------|
|--------|--------|--------|--------|--------|---------|
|--------|--------|--------|--------|--------|---------|
Verse 1; with above pattern (note: stage vers. begin open crds here)
C
G
A
E
D
A
D/a
A
Deaf, dumb and blind boy, He's in a quiet vibration land.
C
G
A
E
D
A
D/a
A
Strange as it seems, his musical dreams ain't quite so bad.
|
G
|
E
|
A
D/a
|
A
D/a
| |
G
|
E
|
A
|
Verse pattern; with open chords
C
|
G
A
|
E
D
|
A
|
C
|
G
A
|
E
D
|
A
D/a
|
A7
C
|
G
A5
E
D
A
D/a
A
C
Ten years old with thoughts as bold as thoughts can be.
G
A5
E
D
A
D/a
A
Loving life and becoming wise in simplicity.
Chorus
G7/f
Cmaj7/e
Sickness will surely take the mind where minds can't usually go
Cm7/eb
D
D7sus4
D
Dsus4
D
Come on the amazing journey and learn all you should know.
BRIDGE
G
Dsus4
D
Dsus4
D
A vague haze of delirium creeps upon me
G
Dsus4
D
Dsus4
D
All at once a tall stranger I suddenly see
G
Dsus4
D
Dsus4
D
He's dressed in a silver-sparkled glittering gown.
G
D
And his golden beard flows nearly down to the (ground)
Bb5
|
F5
C5
|
G5
D
|
A
D/a
|
A
ground..
C
|
G
A5
|
E
D
|
A
D/a
|
A7
D/a
|
A
D/a
|
A7
C
|
G
A
E
D
A
D/a
A
C
Nothing to say, nothing to hear, nothing to see.
G
A
E
D
A
D/a
A
Each sensation makes a note in my symphony.
|
G
|
E5
|
A
D/a
|
A
D/a
| |
G
|
E5
|
A
| |
Repeat Chorus
Sickness will surely take the mind where minds can't usually go Come on the amazing journey and learn all you should know
Repeat BRIDGE
G
Dsus4
D
Dsus4
D
His eyes are the eyes that transmit all they know
G
Dsus4
D
Dsus4
D
Sparkle warm crystalline glances to show
G
Dsus4
D
Dsus4
D
He is your leader, he is your guide
G
D
On the amazing journey together you'll (ride).
Bb5
|
F5
C5
|
G5
D
|
A
D/a
|
A
ride..
C
|
G
A5
|
E
D
|
A
D/a
|
A7
A5
A5
| (
E5
) *
*beginning of Sparks



Sparks

E
D
A
|-------------0----|-----0--------2-----|
|-------------0----|-----0--------3--2--|
|-------------1----|-----1--------2--2--|
|-------------2----|-----2--------0--2--|
|-------------2----|-----2-----------4--|
|0--0--0/0-0--0--0/|0-0--0--0/0-0-------|
E
D
A/c#
|----0--------0----|-----0--------2-----|
|----0--------0----|-----0--------3--2--| x3
|.---1--------1----|-----1--------2--2--|
|.---2--------2----|-----2--------0--2--|
|----2--------2----|-----2-----------0--|
|-0--0--0/0-0-0--0/|0-0--0--0/0-0-------|
E
D
|-------------0----|-----0-2-2-2-2-2-2-2-2-2-|
|-------------0----|-----0-3-3-3-3-3-3-3-3-3-|
|-------------1----|-----1-2-2-2-2-2-2-2-2-2-|
|-------------2----|-----2-0-0-0-0-0-0-0-0-0-|
|-------------2----|-----2-------------------|
|0--0--0/0-0--0--0/|0-0--0-------------------|
E
D
|---0---------0----|-----0--------2-----|
|---0---------0----|-----0--------3--2--|
|---1---------1----|-----1--------2--2--|
|---2---------2----|-----2--------0--2--|
|---2---------2----|-----2-----------0--|
|0--0--0/0-0--0--0/|0-0--0--0/0-0-------|
E
D
A/c#
|----0--------0----|-----0----------2------|
|----0--------0----|-----0----------3--2---| x7
|.---1--------1----|-----1----------2--2--.|
|.---2--------2----|-----2----------0--2--.|
|----2--------2----|-----2-------------0---|
|-0--0--0/0-0-0--0/|0-0--0--0/0-0----------|
E
E/d
E
(
D
)
E
D
A/c#
|x-x------------|-------0-----------|
|x-x------------|-------0-------3-2-|
|x-4---------4--|-------4-------2-2-|
|x-2--x-0h2--2--|-------2-------0-2-|
|x-2---------2--|-------2-2-------0-|
|0-0---------0--|x-0----0-0-0-0-----|
E
E/d
E
(
D
)
E
D
A/c#
|-x-0---------0--|-------0------------|
|-x-0--0-0-0--0--|0-0-0--0---3-3-2-2--| x4
|.x-4--4-4-4--4--|4-4-4--4---2-2-2-2-.|
|.x-2--0-0h2--2--|0-0h2--2---0-0-2-2-.|
|-x-2--0-0h2--2--|0-0h2--2---0-0-0-0--|
|-0-0---------0--|-------0--0---------|
E
E
(
D
)
E
D
A/c#
|0-0-----------0--|-------0-------------|
|0-0-----------0--|-------0-------------|
|4-4-----------4--|-------4----2-2------|
|2-2---2p0h2---2--|2-0h2--2----0-0------|
|-----------------|----------------4---0|
|-----------------|---------------------|
E/b
D/b
E/b
D/b
|-----------7-|-5---7--5-/|-7------|5-------|
|-----------8-|-6---6--6-/|-8------|6-------|
|----7-7-7--7-|-5---5--5-/|-7------|5-------|
|0---0-0-0--0-|-0---0--0-/|-0------|0-------|
|-------------|-----------|--------|--------|
|-------------|-----------|--------|--------|



Eyesight To The Blind (The Hawker)

Eb xx134x and xx88Bx
Ebsus4 xx1144 and xx889x
Fsus4 1x3311 and xxx566
F 1x3211 and xxx565
Eb
Ebsus4
Eb
Ebsus4
|-6-6-----6----|-6--6-------6--|-6-6-----6----|-6-6-------|
|-8---8-----8--|-9----9---6----|-8---8-----8--|-9---9-----|
|-8-----8------|-8------8------|-8-----8------|-8-----8---|
|--------------|---------------|--------------|-----------|
|--------------|---------------|--------------|-----------|
|--------------|---------------|--------------|-----------|
Eb
|-6--6--6--6--|-6--6--6--6--|
|-8--8--8--8--|-8--8--8--8--|
|-------------|-------------|
|-------------|-------------|
|-------------|-------------| (palm mute)
|-------------|-------------|
acoustic gtr verse pattern
x2
x2
Gm
(
Bb
)
Gm
||-6--6--6--6--||-6--6--6--6--||-6--6--6--6-6-|-6--6--6--6--||
||-8--8--8--8--||-8--8--8--8--||-8--8--8--8-6-|-8--8--8--8--||
||.-----------.||.7--7--7--7-.||.7--7--7--7-7-|-7--7--7--7-.||
||.-----------.||.-----------.||.8--8--8--8-8-|-8--8--8--8-.||
||-------------||-------------||--------------|-------------||
||-------------||-------------||--------------|-------------||
elec guitar
||-3--3--3--3--||-3--3--3--3--||-3--3--3--3---|-3--3--3--3--||
||-3--3--3--3--||-3--3--3--3--||-3--3--3--3---|-3--3--3--3-.||
||.3--3--3--3-.||.3--3--3--3-.||.3--3--3--3---|-3--3--3--3-.||
||.5--5--5--5-.||.5--5--5--5-.||.5--5--5--5---|-5--5--5--5--||
||-------------||-------------||--------------|-------------||
||-------------||-------------||--------------|-------------||
Gm
You talk about your woman, I wish you could see mine
Fsus4
F
Gm
Yeah, you talk about your woman, I wish you could see mine
F
C
D
Every time she starts to lovin' she brings eyesight to the blind
You know her daddy gave her magic, I can tell by the way she walks Her daddy gave her magic, I can tell by the way she walks Every time she starts to shakin', the dumb begin to talk
Solo
Repeat Intro
Gm
She's got the power to heal you, never fear
Fsus4
F
Gm
Oh, she's got the power to heal you, never fear
F
C
D
Dsus4
D
Just a word from her lips and the deaf begin to hear



Christmas

G5 355xxx (verse)
G 3x0033 (chorus)
D xx0232
A x022xx
D/C x3x23x (verse)
Cadd9 x3x030 (chorus) Ebmaj7 xx8786 (interlude)
C/G 33201x (chorus) F2sus4 xxx586 (interlude)
Gm x55333 (bridge) Fadd9/A xxx585 (interlude)
Fmaj7add9 xx3213 (bridge) Fsus4 xxx566 (interlude)
Edim7 xx2323 (bridge) F xxx565 (interlude)
Eb/G 3x5343 (bridge) G xx0033 (interlude)
G13sus4 3x3553 (bridge) Gm xx0333 (interlude)
G5
Did you ever see the faces of the children?
D
(
Dsus4
)
D
They get so excited
Waking up on Christmas morning Hours before the winter sun's ignited They believe in dreams and all they mean Including Heaven's generosity Peeping round the door to see what Parcels are for free in curiosity
/c
G
A
D
Cadd9
And Tommy doesn't know what day it is
G
A
D
Cadd9
He doesn't know who Jesus was or what praying is
C/g
G
D
How can he be saved
C/g
G
A
From the eternal grave?
Surrounded by his friends, he sits so silently And unaware of anything Playing poxy pinball, picks his nose and smiles, Pokes his tongue at everything I believe in love, but how can men who've never Seen light be enlightened? Only if he's cured will his spirit's Future level ever heighten? And Tommy doesn't know what day it is Yeah! He doesn't know who Jesus was, or what praying is How can he be saved? From the eternal grave?
Gm
Tommy, can you hear me?
Fmaj7add9
Tommy, can you hear me?
Edim7
Tommy, can you hear me?
Eb/g
Tommy, can you hear me?
G13sus4
Tommy, can you hear me?
Eb/g
Can you hear me?
D
Dsus4
D
Dsus4
D
How can he be saved?
Ebmaj7
|
F2sus4
Fadd9/a
|
Fsus4
F
|
G
| See me, feel me, touch me, heal me See me, feel me, touch me, heal me
Tommy, can you hear me? Tommy, can you hear me? Tommy, can you hear me? Tommy, can you hear me? Tommy, can you hear me? Can ya, can ya, can ya hear me?
Eb/g
Can ya, can ya, Can you hear me?
D
Dsus4
D
Dsus4
D
D
How can he be saved?
Repeat first verse and chorus



Cousin Kevin

Ab7sus4 xxBB9(9)
Db xxBA9(9) Ab7 xxAB9x (2nd verse)
G7sus4 xxAA8x G7 xx9A8x (2nd verse)
C xxA98(8) F#7 xx897x (2nd verse)
F#7sus4 xx997x F7 xx796x (2nd verse)
B xx987(7) E7 xx685x (2nd verse)
F7sus4 xxxABB (1st verse) xx886x (2nd verse)
Bb xxxABA (1st verse) xx8766 (2nd verse)
E7sus4 xxx9AA (1st verse) xx775x (2nd verse)
A xxx9A9 (1st verse) xx7655 (2nd verse)
|
Ab7sus4
|
Db
|
Ab7sus4
|
Db
Ab7sus4
Db
We're on our own, cousin
Ab7sus4
Db
All alone, cousin
G7sus4
C
Let's think of a game to play
G7sus4
C
Now the grown ups have all gone away
F#7sus4
B
You won't be much fun being blind deaf and dumb
F#7sus4
B
But I've no one to play with today
F7sus4
Bb
Do you know how to play hide and seek?
F7sus4
Bb
To find me it would take you a week
E7sus4
A
But tied to that chair you won't go anywhere
E7sus4
A
There's a lot I can do with a freak
F
|
Dm
|
F
|
Db
| How would you feel if I turned on the bath
Bb
|
C
|
Db
| | Ducked your head under and started to laugh?
F
|
Dm
|
F
|
Db
What would you do if I shut you outside |
Bb
|
C
|
Db
|
Dm
|
C
|
Db
To stand in the rain and catch cold so you died.......?
|
F
E
Eb
D
|
Db
|
F
E
Eb
D
|
Db
I'm the school........ bully. The class... room... cheat |
F
E
Eb
(
D
) |
Db
|
F
E
Eb
D
|
Db
The nastiest..... playfriend you ever.... could meet |
F
E
Eb
(
D
) |
Db
|
F
E
Eb
D
|
Db
I'll stick pins... in your fingers and tread... on your feet
Repeat intro, first verse and chorus
Maybe a cigarette burn on your arm Would change your expression to one of alarm I'll drag you around by a lock of your hair Or give you a push at the top of the stairs I'm the school bully, the clasroom cheat The nastiest playfriend you ever could meet I'll put glass in your dinner and spikes in your seat |
Db
|
Ab7sus4
|
Db
|
Ab7sus4
|
Db



Acid Queen

A7 x02223 (verse) G/F 1x0033 (bridge)
Em7/9/D 020032 (verse 3) F/G 3x3211 (bridge)
Em/D x20000 (verse 3) A7sus4 x02033
G/A x00033 (verse 3) B7 xx4445
B7 xx4445 (chorus 3) E(ii) x2245x
E5 022400 A7 x05(2)50
A5 x02255
Dsus2
|----0-----0-----0-|
|------3-----3-----| x2
|.-------2-----2--.|
|.-0--------------.|
|------------------|
|------------------|
Dsus2
Dsus2/c
If your child ain't all he should be now
Fmaj7
G/f
D
This girl can put him right
Dsus2
Dsus2/c
I'll show him what he could be now
Fmaj7
Em7
A7sus4
A
Just give me one night
A
D
A5
I'm the gypsy, the Acid Queen
A
D
A5
Pay before we start
A
D
A5
I'm the gypsy, I'm guaranteed
Em
D
A
To tear your soul apart
Dsus2
Dsus2/c
Give us a room, close the door
Fmaj7
G/f
D
Leave us for awhile
Dsus2
Dsus2/c
Your boy won't be a boy no more
Fmaj7
Em7
A
A7sus4
|
A
Young, but not a child
I'm the gypsy, the Acid Queen Pay before we start I'm the gypsy, I'm guaranteed To tear your soul apart
F/g
G/f
Gather your wits and hold on fast
F/g
G/f
G
Your mind must learn to roam
F/g
G/f
Just as the Gypsy Queen must do
Em
D
A
You're gonna hit the road
|
A
|
B
Bsus4
|
B
|
E
Em7/9/d
My work is done, now look at him
G
A/g
E
He's never been more alive
E
Em/d
His head it shakes, his fingers clutch
G
F#m7
B
Watch his body writhe
B
E5
B7
I'm the gypsy, the Acid Queen
B7
E5
B
Pay before we start
B
E5
B7
I'm the gypsy, I'm guaranteed
Em
D
A
To break your little heart
A7
D/a
|
A7
|
A7
A7
|
A7
A7
D/a
|
A7
|
D/a
A7
|
A7
|
A
A
A
A
A
D/a
|
A7
. . . . |
A7
. . . .
D/a
|
A
A
A
A
A
| |
A
A
A
A
A
D/a
|
A7
. . . . |
E5
D
|
A
| |
Repeat first Verse and Chorus



Underture




Do You Think It's Alright?

F
Em
Do you think it's alright to leave the boy with Uncle Ernie?
G
Dm
F
Do you think it's alright? He's had a few too many tonight.
Bb
Ab
I think it's alright. Do you think it's alright?
Gmaj7
I think it's alright.



Fiddle About

Intro
G5
F5
Eb5
F5
G5
F5
Eb
F5
G5
F5
G5
F5
G5
|-------------------|-------------| |------|-------|------|
|-------------------|-------------| |------|-------|------|
|-12---10---8----10-|-12---10--8--|3|------|-------|------|4
|-12---10---8----10-|-12---10--8--|/|-3--5-|-3---5-|-3--5-|/
|-10---8----6----8--|-10---8---6--|4|-3--5-|-3---5-|-3--5-|4
|-------------------|-------------| |-1--3-|-1---3-|-1--3-|
Verse
G5
D5
G5
G5
C5
Eb5
I'm your wicked Uncle Ernie, I'm glad you won't see or hear me
F5
G5
F5
G5
F5
G5
As I fiddle about, fiddle about, fiddle about.
Your mother left me here to mind you. Now I'm doing what I want to. Fiddling about, fiddling about, fiddle about.
BRIDGE
G5
F#5
F5
C5
C#5
D5
Down with the bedclothes. Up with your nightshirt.
F5
G5
F5
G5
F5
G5
Fiddle about, fiddle about, fiddle about.
Repeat Intro
F5
G5
F5
G5
F5
G5
Fiddle about, fiddle about, fiddle about.
G5
F5
Eb5
G5
F5
Eb5
You won't shout as I fiddle a--bout.
F5
G5
F5
G5
F5
G5
Fiddle about, fiddle about, fiddle about.
||
F5
G5
|
F5
G5
||
x6
F5
Fiddle, fiddle, Fiddle!



Pinball Wizard

Bm/f#
Bsus4/f#
F#7sus4
|-2---------------|-0---------------|-0---------------|
|-3---------------|-3---------------|-2---------------|
|-4---------------|-4---------------|-4---------------|
|-4-4-4-4-4-4-4-4-|-4-4-4-4-4-4-4-4-|-4-4-4-4-4-4-4-4-|
|-----------------|-----------------|-----------------|
|-----------------|-----------------|-----------------|
F#7
F#m7
Em/f#
|-0---------------|-0---------------|-0---------------|
|-2---------------|-2---------------|-0---------------|
|-3---------------|-2---------------|-0---------------|
|-4-4-4-4-4-4-4-4-|-4-4-4-4-4-4-4-4-|-4-4-4-4-4-4-4-4-|
|-----------------|-----------------|-----------------|
|-----------------|-----------------|-----------------|
Em/g
F#sus4
F#
|-----------------|---------------------|-------------------|
|-0-0-0-0-0-0-0-0-|-2-2-2-2-2-2-2-2-2-2-|-2-2-2-2-2-2-2-2---|
|-4-4-4-4-4-4-4-4-|-3-3-3-3-3-3-3-3-3-3-|-3-3-3-3-3-3-3-3---|
|-5-5-5-5-5-5-5-5-|-4-4-4-4-4-4-4-4-4-4-|-4-4-4-4-4-4-4-4-0-|
|-----------------|---------------------|-------------------|
|-----------------|T2-------------------|-2-----------------|
Bsus4
B
x2
|-----------------------|-----------------------|
|-7-7-7-7-7-7-7-7-7-7-7-|-7-7-7-7-7-7-7-7-7-7-7-|
|-9-9-9-9-9-9-9-9-9-9-9-|-8-8-8-8-8-8-8-8-8-8-8-|
|-9-9-9-9-9-9-9-9-9-9-9-|-9-9-9-9-9-9-9-9-9-9-9-|
|-----------------------|-----------------------|
|T7-7-7-7-7-7-7-7-7-7-7-|-7-7-7-7-7-7-7-7-7-7-7-|
Bsus4
B
x2
|-----------------------|-----------------------|
|-7-7-7-7-7-7-7-7-7-7-7-|-7-7-7-7-7-7-7-7-7-7-7-|
|-9-9-9-9-9-9-9-9-9-9-9-|-8-8-8-8-8-8-8-8-8-8-8-|
|-9-9-9-9-9-9-9-9-9-9-9-|-9-9-9-9-9-9-9-9-9-9-9-|
|-----------------------|-----------------------|
|-7-7-7-7-7-7-7-7-7-7-7-|-7-7-7-7-7-7-7-7-7-7-7-|
Bsus4
B
x2
|----------------------------|-------------------------|
|---7-7-7-7-7-7-7-7-7-7------|-7-7-7-7-7-7-7-7-7-7-7---|
|-9-9-9-9-9-9-9-9-9-9-9------|-8-8-8-8-8-8-8-8-8-8-8---|
|-9-9-9-9-9-9-9-9-9-9-9------|-9-9-9-9-9-9-9-9-9-9-9---|
|----------------------------|-------------------------|
|-7-7-7-7-7-7-7-7-7-7-7------|-7-7-7-7-7-7-7-7-7-7-7---|
Ever since I was a young boy, I've played the silver ball
Asus4
A
|---------------------------|-------------------------|
|-5-5-5-5-5-5-5-5-5-5-5-----|-5-5-5-5-5-5-5-5-5-5-5---|
|-7-7-7-7-7-7-7-7-7-7-7-----|-6-6-6-6-6-6-6-6-6-6-6---|
|-7-7-7-7-7-7-7-7-7-7-7-----|-7-7-7-7-7-7-7-7-7-7-7---|
|---------------------------|-------------------------|
|T5-5-5-5-5-5-5-5-5-5-5-----|-5-5-5-5-5-5-5-5-5-5-5---|
From Soho down to Brighton, I must have played them all
Gsus4
G
|---------------------------------|-----------------------|
|-3-3-3-3-3-3-3-3-3-3-3-----------|-3-3-3-3-3-3-3-3-3-3-3-|
|-5-5-5-5-5-5-5-5-5-5-5-----------|-4-4-4-4-4-4-4-4-4-4-4-|
|-5-5-5-5-5-5-5-5-5-5-5-----------|-5-5-5-5-5-5-5-5-5-5-5-|
|---------------------------------|-----------------------|
|T3-3-3-3-3-3-3-3-3-3-3-----------|-3-3-3-3-3-3-3-3-3-3-3-|
But I ain't seen nothin' like him in any amusement hall
F#sus4
F#
|-----------------------------|-----------------------|
|-2-2-2-2-2-2-2-2-2-2-2-------|-2---------------------|
|-4-4-4-4-4-4-4-4-4-4-4-------|-3---------------------|
|-4-4-4-4-4-4-4-4-4-4-4-------|-4---------------------|
|-----------------------------|-----------------------|
|T2-2-2-2-2-2-2-2-2-2-2-------|-2---------------------|
That deaf, dumb, and blind kid sure plays a mean
B
A
D
E
B
A
D
E
|-------2---|-0-0--0-0-0-0-|-------2---|-0-0--0-0-0-0--|
|-4-4-2-3---|-0-0--0-0-0-0-|-4-4-2-3---|-0-0--0-0-0-0--|
|-4-4-2-2---|-1-1--1-1-1-1-|-4-4-2-2---|-1-1--1-1-1-1--|
|-4-4-2-0---|-2-2--2-2-2-2-|-4-4-2-0---|-2-2--2-2-2-2--|
|-2-2-0---0-|-2-2--2-2-2-2-|-2-2-0---0-|-2-2--2-2-2-2--|
|-----------|-0-0--0-0-0-0-|-----------|-0-0--0-0-0-0--|
pinball
He stands just like a statue Becomes part of the machine Feeling all the bumpers Always playing clean He plays by intuition The digit counters fall That deaf, dumb and blind kid Sure plays a mean pinball
E
F#
B
|-0-2--------------|-0-2-----------------|
|-0-2-4-4----------|-0-2-4-4-------------|
|-1-3-4-4----------|-1-3-4-4-------------|
|-2-4-4-4----------|-2-4-4-4-------------|
|-2-4-2-2----------|-2-4-2-2-------------|
|-0-2--------------|-0-2-----------------|
He's a pinball wizard, there has to be a twist
G
D
Dsus4
D
|-0-2--------------|-3-3-3-3----|-2-2-2-3-3-2-|-2-2--2-2-2-2--|
|-0-2-4-4----------|-3-3-3-3----|-3-3-3-3-3-3-|-3-3--3-3-3-3--|
|-1-3-4-4----------|-0-0-0-0----|-2-2-2-2-2-2-|-2-2--2-2-2-2--|
|-2-4-4-4----------|-0-0-0-0----|-0-0-0-0-0-0-|-0-0--0-0-0-0--|
|-2-4-2-2----------|------------|-------------|---------------|
|-0-2--------------|-3-3-3-3----|-------------|---------------|
A pinball wizard's got such a supple wrist
D
Cadd9
(
G
)
D
Cadd9
(
G
)
|-0-0-0-0-0------------|-0-0-0-0-0-0-0---------|
|-3-3-3-3-3-3-3--------|-3-3-3-3-3-3-3---------|
|-2-2-2-0-0-0-0--------|-2-2-2-0-0-0-0---------|
|-0-0-0-0-0-0-0--------|-0-0-0-0-0-0-0---------|
|-------3-3-2-2--------|-------3-3-2-2---------|
|-------------3--------|-------------3---------|
"How do you think he does it? (I don't know)
D
Cadd9
(
G
)
D
|-0--0--0----0-0-----|-0-----|
|-3--3--3----3-3-3-3-|-3-----|
|-2--2--2----0-0-0-0-|-2-----|
|-0--0--0----0-0-0-0-|-0-----|
|------------3-3-2-2-|-------|
|------------------3-|-------|
What makes him so good?
He ain't got no distractions Can't hear no buzzers and bells Don't see lights a-flashin' Plays be sense of smell Always gets a replay I've never seen him fall That deaf, dumb and blind kid Sure plays a mean pinball I thought I was the Bally table king But I just handed my pinball crown to him
x4
Dsus4
D
|
|--------|-----|
|-10-----|-10--|
|-12-----|-11--|
|-12-----|-12--|
|--------|-----|
|-10-----|-10--|
Chords for verse: Csus4: 8x10 10 8 x; C 8x 10 9 8 x;
Bbsus4: 6x886x; Bb: 6x876x; Asus4: 5x775x; A: 5x765x
Dsus4
D
Even on my favorite table, he can beat my best
Csus4
C
His disciples lead him in and he just does the rest
Bbsus4
Bb
He's got crazy flipper fingers, never seen him fall
Asus4
A
That deaf dumb and blind kid sure plays a mean pin
D
D
C
F
Bb7
ball.........



There's A Doctor I've Found

Note: transcribed for stage-version guitar; record is piano only
Intro; piano arr. for guitar
Bb
F/a
Gm7
F
|---------------|-------------|
|-(6)(6)-(6)(6)-|-(3)(3)-(1)--|
|--7--7---5--5--|--3--3---2---|
|--8--8---7--7--|--5--5---3---|
|---------------|-------------|
|---------------|-------------|
gtr; stage vers:(Eb/F) (Bb)
|---------------|-------------|
|--3--3---1--1--|--4--4---3---|
|-(3)(3)-(2)(2)-|-(3)(3)-(3)--|
|--3--3---3--3--|--5--5---3---|
|-(1)(1)-(0)(0)-|-------------|
|---------------|-------------|
Bb
F
Eb/f
Bb/d
There's a man I've found could bring us all joy. (There's a)
|--------------------|-----------------------|
|-3---3----1-----1---|-4-----4------3-----3--|
|-3---3----2-----2---|-3-----3------3-----3--|
|-3---3----3-----3---|-5-----5------3-----3--|
|--------------------|-------------(5)-------|
|--------------------|-----------------------|
Bb
F/a
Gm7
F
There's a doctor I've found could cure the boy
|-----------------------|---------------|
|-6-------6---6-----6---|-3----3---1-1--|
|-7-------7---5-----5---|-3----3---2-2--|
|-8-------8---7-----7---|-5----5---3-3--|
|-----------------------|---------------|
|-----------------------|---------------|
Bb
F/a
Gm7
F
(A doctor I've found can cure the boy).
Bb
F/a
|
Gm7
F
|
|-----6------5--|-----3--1----|
|-----6------6--|-----3--1----|
|-----7------5--|-----3--2----|
|-8-8-8--7-7-7--|-5-5-5--3----|
|---------------|-------------|
|---------------|-------------|
Bb
F
Eb/f
Bb/d
There's a man I've found could remove his sorrow.
Bb
F/a
Gm7
F
He lives in this town, let's see him tomorrow.
Bb
F/a
Gm7
F
(Let's see him tomorrow.)



Go To The Mirror Boy

E5 022xxx Ab7 466544 (7th implied by piano)
E 022400 Ebmaj7 xx1333 (piano)
B5 x244xx Fsus4 xx3311 (piano)
A5 x022xx F xx3211 (piano)
C#m xx6654 G xx0003 (piano)
B7sus4 x24455 Bsus4 7997xx
B x2444x
A* x022(2)x or Amaj7 x02224
Intro; main pattern x4
||
E5
B5
A5
||
||-----------------------------------||
||-----------------------------------||
||.------------(5)---(4)(4)(4)(2)(2).||
||.(2)(2)(2)(2)(2)----4--4--4--2--2-.||
||--2--2--2--2--2-----2--2--2--0--0--||
||--0--0--0--0--0--------------------||
Verse
|
E5
B5
|
E5
E
B5
A5
He seems to be completely unreceptive |
E5
B5
|
E5
E
B5
A5
The tests I gave him show no sense at all |
Ab7
|
C#m
B
B
His eyes react to light, the dials detect it |
A*
|
B7sus4
|
B5
| He hears but cannot answer to your call
BRIDGE
Piano
|
Ebmaj7
|
Fsus4
F
|
Fsus4
F
|
G
| See me Feel me Touch me Heal me
|
Ebmaj7
|
Fsus4
F
|
Fsus4
F
| See me Feel me Touch me
|
Esus4
|
E
|
B7sus4
|
B
| heal me (There)
|----------------|--------0------|-------5-5-|----------------|
|----------------|--------0------|-------5-5-|-4-4-4-4-4-4-4--|
|----------------|--------1------|---4---4-4-|-4-4-4-4-4-4-4--|
|2---------------|--------2------|---4---4-4-|-4-4-4-4-4-4-4--|
|2---------------|--------2-----0|-2-2-2-2-2-|-2-2-2-2-2-2-2--|
|0-0-0-0-0-0-0-0-|0-0-0-0-0-0-0--|-----------|----------------|
Verse
|
E5
B5
|
E5
B5
A5
| There is no chance, no untried operation
E5
B5
|
E5
B5
A5
All hope lies with him and none with me |
Ab7
|
C#m
B
B
Imagine, though, the shock from isolation |
A
|
B7sus4
|
B5
| When he suddenly can hear and speak and see
Repeat BRIDGE
See me, feel me, touch me, heal me See me, feel me, touch me,
|
Em
Emadd9
|
E
|
B7sus4
|
B
| heal me
|-----2------|0--------------|-5-----5-5-|-------------|
|-----0------|0--------------|-5-----5-5-|-4--4--4--4--|
|-----0------|4--------------|-4-----4-4-|-4--4--4--4--|
|-----2------|2-2------------|-4-----4-4-|-4--4--4--4--|
|-----2------|2-2-2-2-2-2-2-0|-2-2-2-2-2-|-2--2--2--2--|
|0-----------|0-0-0-0-0-0-0--|-----------|-------------|
Verse
His eyes can see, his ears can hear, his lips speak All the time the needles flick and rock No machine can give the kind of stimulation Needed to remove his inner block
Chorus
||
B5
| ||
x2
Go to the mirror, boy!
||------------------------|-------------------||
||------------------------|-------------------||
||.4--4--4---2------4-4---|-4---4-4-4-4-4-4--.||
||.4--4--4---2------4-4---|-4---4-4-4-4-4-4--.||
||-2--0--2---0------2-2---|-2---0-1-2---0-1---||
||------------------------|---2-------2-------||
Verse
I often wonder what he is feeling. Has he ever heard a word I've said? Look at him in the mirror dreaming. What is happening in his head?
REFRAIN
|
A
B
|
C
Listening to you, I get the music |
A
B
|
E
Gazing at you, I get the heat |
A
B
|
C
Following you, I climb the mountain |
G
D
|
B
|
B7sus4
I get excitement at your feet. |
A
B
|
C
Right behind you, I see the millions |
A
B
|
E
On you, I see the glory |
A
B
|
C
From you, I get opinions |
G
D
|
Bsus4
|
B
From you, I get the story
Repeat main pattern
||
E5
E5
E5
B5
B5
A5
||
x4
|
Ab7
|
C#m
B
What is happening in his head? |
A
|
Bsus4
|
B7sus4
B5
|
E
Oooh, I wish I knew, I wish I knew.
x3
||
E5
B5
A5
||
E5
||----------------||----
||----------------||----
||.--------------.||----
||.--------4-4-2-.||----
||--2-2---2-2--0--||----
||-0-0-0----------||-0--
palm mute



Tommy Can You Hear Me

Tuning: Drop D
G
G/c
G
C/g
C/g
G
C
G
C/g
C/g
Tommy can you hear me?
G
C
G
C/g
C/g
Can you feel me near you?
F
Bb
F
Tommy can you see me?
Em
Am
Em
Can I help to cheer you?
D
D
D
D
Ooh, Tommy, Tommy, Tommy, Tommy
Repeat



Smash The Mirror

F
Gm7
You don't answer my call with even a nod or a wink
C7
Eb
Ebsus4
Eb
But you gaze at your own reflection alright
F
Gm7
You don't seem to see me but I think you can see yourself
C7
Eb
How can the mirror affect you?
Bb
F
Bb
F
Can you hear me, or do I surmise
Bb
F
Bb
That you fear me, can you feel my temper...
B
C/b
C#/b
D/b
Eb/b
E/b
Rise, rise, rise, rise, rise, rise
F/b
F#/b
G/b
Ab/b
A/b
Bb/b
B
rise, rise, rise, rise, rise, rise, rise
B
C#
Do you hear or fear, or do I smash the mirror?
B
C#
Do you hear or fear, or do I smash the mirror?



Sensation

E(iv) 006454 (chorus) F# xx8676 (bridge)
A5 x02255 (chorus) C# x4666x (bridge)
D/A x04232 (chorus) D7 xx0535 (bridge)
A7 x02223 (chorus) G/D xx0433 (bridge)
A7sus4 x02233
Intro; main pattern
D
Dsus4
||----2-----3-------||
||------3---3--3----||
||.-------2-2----2-.||
||.-0-------0------.||
||------------------||
||------------------||
Verse
D
Dsus4
D
Dsus4
I overwhelm as I approach you
D
Dsus4
D
C
C/b
|
C/a
C/b
|
C
Make your lungs hold breath inside
|--------------------------------|
|-----3-----3-----3-----3-----3--|
|-----0-----0-----0-----0-----0--|
|---2-----2-----2-----2-----2----|
|-3-----2-----0-----2-----3------|
|--------------------------------|
D
Dsus4
D
Dsus4
D
Dsus4
D
Lovers break caresses for me. Love enhanced when I've gone...
|
C
C/b
|
C/a
C/g
|
A7sus4
Asus4
|
A5
| | by...
|-------------------------|
|-----3-----3-----3-----3-|
|-----0-----0-----0-----0-|
|---2-----2-----2-----2---|
|-3-----2-----0-----------|
|-------------------3-----|
Chorus
A5
E(iv)
D
D
A
E(iv)
D
D
You'll feel me coming. A new vibration.
A5
E(iv)
D
D
E
E7
From afar you'll see me. I'm a sensation.
A
A7
I'm a sensation.
D
Dsus4
D
Dsus4
They worship me and all I touch.
D
Dsus4
D
C
C/b
|
C/a
C/b
|
C
| Hazy-eyed, they catch my glance.
D
Dsus4
D
Dsus4
Pleasant shudders shake their senses.
D
Dsus4
D
C
C/b
|
C/a
C/g
|
A
Asus4
|
A
| My warm momentum throws their stance.
Repeat Chorus
BRIDGE
F#
C#
D
Dsus4
|
D7
G/d
Soon you'll see me. Can't you feel me? I'm coming.
F#
C#
D
| Send your troubles dancing, I know the answer. I'm coming. |
E
A
I'm coming. I'm a sensation.
Verse 3
E
Esus4
E
Esus4
I leave a trail of rooted people
E
Esus4
E
D
D/c#
|
D/b
D/c#
|
D
Mesmerized by just the sight.
|-------------------------------|
|-----3-----3-----3-----3-----3-|
|-----2-----2-----2-----2-----2-|
|---4-----4-----4-----4-----4---|
|-5-----4-----2-----4-----5-----|
|-------------------------------|
Same riff as before except now in D.
Barre 2nd fret and manipulate 4th finger
and 3rd finger.
|-2-----0-----0-----0-----0---0-|
|-3-----2-----0-----2-----3---3-|
|-2-----2-----2-----2-----2---2-|
|-0-----0-----0-----0-----0---0-|
|-------------2-----------------|
|-------------------------------|
alternate riff from stage versions
E
Asus2
E
Asus2
The few I've touched now are disciples.
E
Asus2
E
||
D
D/c#
|
D/b
D/c
|| Love as one. I am the light.



Miracle Cure

F
Gm
Ab
Extra, extra, read all about it!
Eb
Bb
The pinball wizard in a miracle cure!
F
Gm
Ab
Bb
F
Extra, extra, read all about it! Extra!



Sally Simpson

G/C 3x2013
Fadd9 1x3213 (instead of F in stage versions)
|
C
|
G
|
C
|
G
G
G
|
C
G
Outside the house Mr. Simpson announced
C
G
That Sally couldn't go to the meeting
C
G
He went on cleaning his blue Rolls Royce
C
G
And she ran inside a-weeping
C
G
She got to her room and tears splashed the picture
C
G
Of her new messiah
C
G
She picked up a book of her father's life
C
G
G/c
G
G
And threw it on the fire
F
She knew from the start, deep down in her heart
G
G/c
G
G/c
G
G
That she and Tommy were worlds apart
F
C
But her mother said, "Never mind, your part
D
G
G/c
Is to be what you'll be"
The theme of the sermon was "Come unto me and love will find a way" So Sally decided to ignore her dad and sneak out anyway She spent all afternoon getting ready And decided she'd try to touch him Maybe he'd see that she was free and talk to her this Sunday
Repeat Chorus
She arrived at six and the place was swingin' to gospel music by nine Group after group appeared on the stage And Sally just sat there cryin' She bit her nails looking pretty as a picture Right in the very front row Then a D.J. wearin' a blazer with a badge ran on And said, "Here we go!"
D7
G
D7
G
The crowd went crazy as Tommy hit the stage
D7
G
Little Sally got lost as the police
A7
D
Dsus4
D
Dsus4
D
The crowd back in a rage
Soon the atmosphere was cooler and Tommy gave a lesson Sally just had to let him know she loved him And leapt up on the rostrum She ran across the stage to the spotlit figure And brushed him on the face Tommy whirled round as a uniformed man threw her off the stage
Repeat Chorus
Her cheek hit a chair and blood trickled down, mingling with her tears Tommy carried on preaching and his voice filled Sally's ears She caught his eye. She had to try But he couldn't see through the lights Her face was gashed and the ambulance men Had to carry her out that night
D7
G
D7
G
The crowd went crazy as Tommy left the stage
D7
G
Little Sally was lost for the price of a touch
A7
D
Dsus4
D
Dsus4
D
And a gash across her face. Ooooh
Sixteen stitches put her right and her dad said "Don't say I didn't warn ya!" Sally got married to a rock musician she met in California Tommy always talks about the day the disciples all went wild Sally still carries a scar on her cheek to remind her of his smile
Repeat Chorus
|
G
G
G
|
G/c
G/c
G/c
|
G
G
G
|
G/c
G/c
G/c
|
G



I'm Free

E5 02xxxx F#m5 24xxxx
Bsus4 7x997x Absus4 4x664x
B 7x987x Ab 4x654x
G5 3x0xxx B5 x24xxx
Bbsus4 6x886x Gsus4 3x553x
Bb 6x876x G 3x543x
A5 x02xxx F#sus4 2x442x
Asus4 5x775x F# 2x432x
A 5x765x
E5
||
E5
G5
G5
A5
A5
A5
F#m5
|
F#m5
A5
A5
B5
B5
B5
E5
||
E5
E5
G5
G5
A5
A5
A5
F#m5
F#m5
A5
A5
B5
B5
B5
I'm free
E5
E5
G5
G5
A5
A5
A5
F#m5
F#m5
A5
A5
B5
B5
B5
I'm free
G
A
D
Dsus4
D
And freedom tastes of reality
E5
E5
G5
G5
A5
A5
A5
F#m5
F#m5
A5
A5
B5
B5
B5
I'm free
E5
E5
G5
G5
A5
A5
A5
F#m5
F#m5
A5
A5
B5
B5
B5
I'm free
G
A
B
Bsus4
B
And I'm waiting for you to follow me
Bm
Bm
If I told you what it takes to reach the highest high
G
A
D
Dsus4
D
You'd laugh and say, "Nothing's that simple."
Bm
Bm
But you've been told many times before, Messiahs pointed to the door
G
A
B
No one had the guts to leave the temple.
E5
E5
G5
G5
A5
A5
A5
F#m5
F#m5
A5
A5
B5
B5
B5
I'm free
E5
E5
G5
G5
A5
A5
A5
F#m5
F#m5
A5
A5
B5
B5
B5
I'm free
G
A
D
Dsus4
Dsus4
D
And freedom tastes of reality
Solo
|
Dsus4
|
D
|
x6
E5
E5
G5
G5
A5
A5
A5
F#m5
F#m5
A5
A5
B5
B5
B5
I'm free
E5
E5
G5
G5
A5
A5
A5
F#m5
F#m5
A5
A5
B5
B5
B5
I'm free
G
A
B
And I'm waiting for you to follow me
|
Bsus4
|
B
|
Bsus4
|
B
| |
Bsus4
|
B
|
Bsus4
|
B
| How can we follow? How can we follow?
|
Bsus4
B
|
Bbsus4
Bb
|
Asus4
A
|
Absus4
Ab
|
Gsus4
G
|
F#sus4
|
F#
Oooh.. Oooh.. Oooh.. Oooh.. Oooh.. Oooh..



Welcome

Intro
x4
||-------7-----7--||
||-----8-----8----||
||.--7-----7-----.||
||.--------------.||
||----------------||
||----------------||
gtr 2
||----------------||
||-------3-----3--||
||-----0-----0----||
||---0-----0------||
||----------------||
||---3-----3------||
MAIN RIFF
G
D
G
D
||--3----3----2--3--5-|---3--2--0-(2)--||
||--3---------3-------|---3--------3---||
||.-0---------2-------|---0--------2--.||
||.-0---------0-------|---0--------0--.||
||--------------------|----------------||
||--3-----------------|---3------------||
Verse
G
D
G
D
(RIFF)
Come to this house. Be one of the comfortable people.
G
D
G
D
(RIFF)
Lovely bright home. We're drinking all night, never sleeping.
F#
Em
Bm7
Em
Bm7
Milkman come in, and you baker.
Em
Bm7
Em
Bm7
Little old lady welcome, and you, shoemaker.
Chorus 1
G
F
Bb
F
C
|-3--------------------------|------------------------|
|-0--------------------------|---------------------5--|
|-0--------------------------|---------------------5--|
|-0---------------------3-3--|-3-------------------5--|
|-2------------------3--1-0--|-3-------------------3--|
|-3------------------1-------|-1----------------------|
Come to this house, into this house.......
G
D
G
D
(RIFF)
Come to this house. Be one of us.
G
D
G
D
(RIFF)
Make this your house. Be one of us.
F#
Em
Bm7
Em
Bm7
You can help collect some more in.
Em
Bm7
Em
Bm7
Young and old people, let's get them all in.
Chorus 2
A
A/g
D
D/c
Bm7
E
|-------------------|--------|--------------|-----|-2-----|-0---|
|-------------------|--------|-3------------|-3---|-3-----|-0---|
|-2-----------------|--------|-2------------|-2---|-2-----|-1---|
|-2-----------------|--------|-0------------|-0---|-------|-2---|
|-0-----------------|----3-2-|--------------|-3---|-2-----|-2---|
|-------------------|-3------|--------------|-----|-------|-0---|
Come to this house, into this house
BRIDGE
E
D/e
E
F
||---------------------|----------------------||
||--------9x--9--9---7-|-------9x--9--9---10--|| x8
||.-------9x--9--9---7-|-------9x--9--9---10-.||
||.-------9x--9--9---7-|-------9x--9--9---10-.||
||--------7x--7--7---7-|-------7x--7--7---8---||
||--0--0---------------|-0--0-----------------||
D
E
D
Ask along that man who's wearing a carnation.
E
D
Bring every single person from Victoria station.
E
D
Go into that hospital and bring the nurses and patients.
E
Everyone go home and fetch their relations.
A
E
A
E
A
Come to this house, be one of the comfortable people.
A
E
A
E
|-------5----|-0---------|-------5----|-0---------|
|-------5----|-0---------|-------5----|-0---------|
|-------2----|-1---------|-------2----|-1---------|
|---2--------|-2---------|------------|-2---------|
|-0----------|---------0-|-0----------|---------0-|
|------------|-----------|------------|-----------|
A
E
A
E
Lovely bright home, drinking all night, never sleeping.
A
E
|-------5----|-4------|-----------|
|-------5----|-5------|-------5---|
|-----2------|-4------|-----2-2---|
|------------|-6------|---2-------|
|-0----------|------0-|-0---------|
|------------|--------|-----------|
INTERLUDE
D
D/c
D
D/c
(Spoken) "Excuse me sir, there's more at the door."
D
Cadd9
x7
There's more at the door.
D
Cadd9
D
E
There's more at the door, there's more.
Em
Bm7
Em
Bm7
We need more room. Build an extension.
Em
B7
Em
B7
A colorful palace. Spare no expense now.
G
D7
G
D7
(RIFF)
Come to this house, be one of us.
G
D7
G
D7
(RIFF)
Come into this house, be one of us.
Solo; 12 string
|
Em
Bm7
|
Em
Bm7
|
Em
Bm7
|
Em
Bm7
|
|------------|-----------|--------------|----------|
|------------|-----------|--------------|----------|
|------------|-0---------|--------------|----------|
|-2-2-2-2----|-5-2-2-----|--2-2-2/5-2-0-|-2-2-0-2--|
|------------|------2-0--|--------------|----------|
|------------|---------3^|-0------------|----------|
Repeat Chorus 2
A
A/g
D
D/c
Bm7
Come to this house. Into this house
|
E
. . . . . . | . . . . . |
|--------------------------8-11--|
|---------------------8-11-------| (Ab mixolydian scale)
|----------------8-11------------|
|-----------8-10-----------------|
|------9-11----------------------|
|-8-11---------------------------|
|
E
| |
|--------------------------8-11-14-16-18-20--|
|---------------------8-11-------------------|
|----------------8-11------------------------|
|-----------8-10-----------------------------|
|------9-11----------------------------------|
|-8-11---------------------------------------|
Welcome



Tommy's Holiday Camp

NOTE: Stage versions played whole step higher (outro is same):
F# x8AAAx
G xACCCx
C#7 x4666x
Banjo and calliope/organ arranged for guitar
B
Good morning, campers!
E
F
I'm your Uncle Ernie and I welcome you to Tommy's Holiday Camp-ah!
B7
The camp with the difference, never mind the weather
B7
When you come to Tommy's, the holiday's forever!
E
F
B7
The camp with the difference, never mind the weather When you come to Tommy's, the holiday's forever
E
Welcome....



We're Not Gonna Take It

G 3x0003 and 3x0033
C/G 3x2013
G5 355xxx
F5 133xxx
Fadd9 1x3213
See me, feel me
E/D xx0454 Fsus4 xx3311 and xxx566
D/E xx2232 F xx3211 and xxx565
B7sus4 x24455 Bsus4 7x997x
Ebmaj7 xx1333 B 7x987x
G
C/g
C/g
C/g
G
Welcome to the camp, I guess you all know why we're here
F
Em
My name is Tommy, and I became aware this year
Eb
G
C/g
G
If you want to follow me, you've got to play pinball
C
G
C
G
And put in your earplugs, put on your eyeshades
C
G
G5
G5
G5
F5
G5
You know where to put the cork
Hey, you, gettin' drunk, so sorry, I've got you sussed Hey, you, smokin' mother nature, this is a bust Hey, hung up ol' Mr. Normal, don't try to gain my trust 'Cause you ain't gonna follow me any of those ways Although you think you must
G
C
C
G
F
C
We're not gonna take it We're not gonna take it We're not gonna take it We're not gonna take it
C
G
F
C
G
We're not gonna take it, never did and never will
C
G
F
C
We're not gonna take it, gonna break it, gonna shake it
Bb
Am
G
Let's forget it better still
||
G
C
|
C/g
G
F
C
||
x2
Now you can't hear me, your ears are truly sealed You can't speak either, 'cause your mouth is filled You can't see nothing, and pinball completes the scene Here comes Uncle Ernie to guide you to your very own machine We're not gonna take it We're not gonna take it We're not gonna take it We're not gonna take it
C
G
F
C
G
We're not gonna take it, never did and never will
C
G
F
C
G
Don't want no religion, and as far as we can tell
C
G
F
C
G
We ain't gonna take you, never did and never will
C
G
F
C
We're not gonna take you, we forsake you, gonna rape you
Bb
Am
G
Let's forget you better still
||
G
. .
C
|
C/g
G
F
C
||
x4
|
G
|
G
|
Fadd9
C
We forsake you, gonna rape you
Bb
Am7
A
Let's forget you better still
See me, feel me
|
E/d
|
D/e
|
E/d
|
D/e
|
Ebmaj7
|
Fsus4
F
|
Fsus4
F
|
G
See me, feel me, touch me, heal me See me, feel me, touch me, heal me See me, feel me, touch me, heal me
Ebmaj7
|
Fsus4
F
|
Fsus4
F
| See me, feel me, touch me,
|
Esus4
|
E
|
B7sus4
|
B
| heal me (Listening..)
A
B
C
Listening to you, I get the music
A
B
E
Gazing at you, I get the heat
A
B
C
Following you, I climb the mountain
G
D
Bsus4
B
I get excitement at your feet
Right behind you, I see the millions On you, I see the glory From you, I get opinions From you, I get the story
Repeat and fade