Chordproc: Who : Who's Next

Who : Who's Next


  1. Baba O'Riley
  2. Bargain
  3. Love Ain't For Keeping
  4. My Wife
  5. Getting In Tune
  6. Goin' Mobile
  7. Behind Blue Eyes
  8. Won't Get Fooled Again

Baba O'Riley

Capo III
Riff:
e|---------------------|
B|----------3-3--------|
G|------2-2-----2-2----|
D|--0-0----------------|
A|---------------------|
E|---------------------|
D
A
G
x8
D
A
G
Out here in the fields
D
A
G
I fight for my meals
D
A
G
D
A
G
I get my back into my living
D
A
G
I don't need to fight
D
A
G
To prove I'm right
D
A
G
D
A
G
I don't need to be forgiven, yeah, yeah, yeah, yeah, yeah, yeah
D
A
G
x5
A
x3
A
D
Don't cry
A
G
Don't raise your eye
D
G
A
It's only teenage wasteland
D
A
G
Sally, take my hand
D
A
G
We'll travel south cross land
D
A
G
D
A
G
Put out the fire, and don't look past my shoulder
D
A
G
The exodus is here
D
A
G
The happy ones are near
D
A
G
D
A
G
Let's get together, before we get much older
D
A
G
x2
D
A
G
Teenage wasteland
D
A
G
It's only teenage wasteland
D
A
G
Teenage wasteland, Oh, yeah
D
A
G
Teenage wasteland
A
A
G
G
They're all wasted!
A
G
D
C
A
G
D
C
D
D
C
Violin Solo



Bargain

Capo I
A
G
D
I'd gladly lose me to find you
A
G
D
I'd gladly give up all I had
A
Cadd9
D
To find you, I'd suffer anything and be glad
I'll pay any price just to get you I'll work all my life, and I will To win you I'd stand naked, stoned and stabbed
F
I'd call that a bargain
G
D
The best I ever had
Dsus2
A
The best I ever had..........
G6
/f#
C
G
D
G6
I'd gladly lose me to find you I'd gladly give up all I got To catch you I'm gonna run and never stop I'd pay any price just to win you Surrender my good life for bad To find you I'm gonna drown an unsung man I'd call that a bargain The best I ever had The best I ever had
D
Dmaj7
Dsus2/c
I sit looking round, I look at my face in the mirror
G6
Cadd9
I know I'm worth nothing without you
D
Dmaj7
Dadd9
In life one and one don't make two, One and one make one
G6
Cadd9
And I'm looking for that free ride to me
Esus4
|
E
|
Esus4
I'm looking for you.....
|
A
|
A7sus4
| |
A7
| | |
A7sus4
| |
A7
| |
A7sus4
|
A7
| |
I'd gladly lose me to find you I'd gladly give up all I got To catch you I'm gonna run and never stop I'll pay any price just to win you Surrender my good life for bad To find you I'm gonna drown an unsung man I call that a bargain The best I ever had



Love Ain't For Keeping

G
A
G
D
A
Layin' on my back in the newly-mown grass
|-------------------------------------|
|-------------------------------------|
|-----------2-2-----2-2-----2-2-----2-|
|-------2-4-------4-------4-------4---|
|-0-2-4-------------------------------|
|-------------------------------------|
G
D
A
Rain is coming down, but I know the clouds will pass
|------------|
|------------|
|------------|
|---2-0-0----|
|-4----------|
|------------|
D
A
You bring me tea, say the babes are sleeping
|-14\--------| |----9---7---5--0-|
|-15\--------| |---------------1-|
|------7-7---| |-/9---7---6----0-|
|------------| |---------------2-|
|------------| |---------------3-|
|------------| |-----------------|
C
G
A
Lay down beside me, love ain't for keeping
|---------------------------------------------3-3--2-2---|
|------------------------------------------/5-5-5--3-3---|
|--------------------------2----2-----2----------------2-|
|------------------------2---4------4--------------------|
|-4r2--0-----0-0-----0h4---------------------------------|
|---------2----------------------------------------------|
G
D
A
Black ash from the foundry hangs like a hood
G
D
A
But the air is perfumed by the burning firewood
D
A
The seeds are bursting, the spring is seeping
|-15-14-------| |--------------------------0--|
|-------15----| |----15-15----14\12--------1--|
|----------14-| |-12-------------------14--0--|
|-------------| |-------------------14-----2--|
|-------------| |--------------------------3--|
|-------------| |-----------------------------|
C
G
A
Lay down my darlin', love ain't for keeping
|-/9----7---5--------------------9----7---5-----------------0--|
|-/10---7---7--------------------10---7---5-----------------1--|
|-----0-----7-----------------------------------------------0--|
|--------------5-x-7-7--7---7----------------5---7-5--------2--|
|-------------------------0---0----------------------7-5-3--3--|
|--------------------------------------------------------------|
C
G
G
A
Lay down beside me, love ain't for keeping
C
G
G
A
Lay down beside me, love ain't for keeping
|-5-x-5---------------------------------------------------------0--|
|-5-x-5---------------x----------------------2------------------1--|
|---------------------x------------------------2---2-2---2-2----0--|
|----------------2----x-------------------2------------4-----4--2--|
|-------0---2b4-----4---4-4-0---0---0h2h4-----------------------3--|
|-----------------------------3------------------------------------|
C
G
A
Lay down my darlin', love ain't for keeping
|------------------------------------|
|------------------------------2-2---|
|-6r4p2-----------2------------2-2---|
|-------4-----2-----2-----2----2-2---|
|---------0-4---0-----0-4---0--0-0---|
|------------------------------------|



My Wife

B
A
B
A
|-----------------------------------|
|--------------2--------------------|
|-4-----4--2-2-2-------4-----4--2-2-|
|-4-----4--2-2---------4-----4--2-2-|
|-2-----2--0-0-----0---2-----2--0-0-|
|-----------------------------------|
B
G
My life's in jeopardy
G
E
Murdered in cold blood is what I'm gonna be
D
I ain't been home since Friday night
E
B
And now my wife is coming after me
C#
G
Give me police protection, gonna buy a gun
E
So I can look after number one
D
Give me a body guard
G
F#
A black belt Judo expert with a machine gun
B
G
Gonna buy a tank and an aeroplane
G
E
When she catches up with me won't be no time to explain
D
She thinks I'm with another woman
E
B
And that's enough to send her half-insane
C#
G
Gonna buy a fast car, put on my lead boots
E
Take a long, long drive
D
G
It may end up spending all my money
F#
But I'll still be alive
E
F#
All I did was have a few too much to drink
B
C#
And I picked the wrong precinct
E
Got picked up by the law
F#
B
And now I ain't got time to think
Gonna buy a tank and an aeroplane When she catches up with me won't be no time to explain She thinks I'm with another woman And that's enough to send her half-insane Gonna buy a fast car, put on my lead boots Take a long, long drive It may end up spending all my money But I'll still be alive
E
F#
And I'm oh so tired of running
B
C#
Gonna lay down on the floor
E
I gotta rest some time so
F#
B
I can get to run some more, yeah!



Getting In Tune

D
Dsus4
Dsus2
Dsus4
x2
D
I'm singing this note 'cause it fits in well
G
With the chords I'm playing
D
I can't pretend there's any meaning hidden
G
In the things I'm saying
D
G
But I'm in tune, right in tune
D
Asus2
A
I'm in tune and I'm gonna tune
D
C
Right in on you
E
F
Right in on you
G
D
Right in on you
D
I get a little tired of having to say
G
Do you come here often?
D
But when I look in your eyes and see the harmonies
G
And the heartaches soften
But I'm in tune, right in tune I'm in tune and I'm gonna tune Right in on you Right in on you Right in on you
Em7
I've got it all here in my head
Cmaj7
There's nothing more needs to be said
G
I'm just bangin' on my old piano
A7
I'm getting in tune to the straight and narrow
A7
Getting in tune to the straight and narrow Getting in tune to the straight and narrow Getting in tune to the straight and narrow Getting in tune to the straight and narrow Getting in tune to the straight and narrow
Key change to E
E
I'm singing this note 'cause it fits in well
A
With the way I'm feeling
E
There's a symphony that I hear in your heart
A
Sets my head a-reeling
E
A
But I'm in tune, right in tune
E
Bsus2
B
I'm in tune and I'm gonna tune
E
A
Right in on you
F#
G
Right in on you
E
A
Right in on you
E
E
A
Baby, with you, baby with you
F#
F#
G
Baby, with you, baby with you
E
Baby, with you
F#m7
I've got it all here in my head
Dmaj7
There's nothing more needs to be said
A
I'm just bangin' on my old piano
B7
I'm getting in tune to the straight and narrow
B7
Getting in tune to the straight and narrow Getting in tune to the straight and narrow Getting in tune to the straight and narrow Getting in tune to the straight and narrow Getting in tune to the straight and narrow



Goin' Mobile

|
D
/a
/g
D
/a
/g
|
x2
|
Em
C
|
x2
D
I'm goin' home, and when I want to go home
Em
C
I'm goin' mobile
D
Well I'm gonna find a home on wheels, see how it feels
Em
C
D
Goin' mobile, keep me movin'
I can pull up by the curb, I can make it on the road Goin' mobile I can stop in any street invitin' people that we meet Goin' mobile, keep me movin'
F
Am
Dm
Out in the woods or in the city
/c
Bb
It's all the same to me
C
When I'm drivin' free the world's my home
D
When I'm mobile
Play the tape machine, make the toast and tea When I'm mobile Well I can lay in bed with only highway ahead When I'm mobile, keep me movin', keep me movin'
D
Over 50, keep me groovin' Just a hippie gypsy, come on move now Movin' Keep me movin' yeah Keep me movin, groovin, movin' yeah Movin' yeah mobile, mobile Mobile, mobile, mobile, mobile, mobile
F
Am
Dm
I don't care about pollution
/c
Bb
I'm an air-conditioned gypsy, that's my solution
C
Watch the police and the taxman miss me!
D
D
D
D
I'm mobile... wooooo yeeeeah heeee mobile mobile mobile
Em
C
Am
D



Behind Blue Eyes

Em
G
D
No one knows what it's like, to be the bad man
C
A
To be the sad man, behind blue eyes
Em
G
D
No one knows what it's like to be hated
C
A
To be fated, to telling only lies
C
D
G
But my dreams, they aren't as empty
C
D
E
As my conscience seems to be
Bm
C
I have hours, only lonely
D
A
My love is vengeance that's never free
No one knows what it's like to feel these feelings Like I do, and I blame you No one bites back as hard on their anger None of my pain and woe, can show through But my dreams, they aren't as empty As my conscience seems to be I have hours, only lonely My love is vengeance that's never free
D
Bm
A
E
When my fist clenches crack it open
Bm
G
D
Before I use it and lose my cool
Bm
A
E
When I smile tell me some bad news
Bm
A
E
Before I laugh and act like a fool
And if I swallow anything evil Stick your finger down my throat If I shiver please give me a blanket Keep me warm let me wear your coat No one knows what it's like, to be the bad man To be the sad man, behind blue eyes



Won't Get Fooled Again

Opening keyboards based over A and D chords
A
G
D
A
G
D
We'll be fighting in the streets
A
G
D
With our children at our feet
A
D
E
G
D
And the morals that they worship will be gone
A
G
D
And the men who spurred us on
A
G
D
Said out judgments were all wrong
A
D
E
G
D
They decide and the shotgun sings the song
D
A
D
A
I'll tip my hat to the new constitution
D
A
D
A
Take a bow for the new revolution
D
A
D
A
Smile and grin at the change all around
G
E7
Pick up my guitar and play
G
E7
Just like yesterday
G
D
Then I'll get on my knees and pray
A
G
D
We don't get fooled again
The change, it had to come We knew it all along We were liberated from the fold, that's all And the world looks just the same And history ain't changed 'Cause the banners, they all flown in the last war
B
I'll move myself and my family aside
E
If we happen to be left half alive
A
I'll get all my papers and smile at the sky
B
A
E
Though I know that the hypnotized never lie
Jam over (main riff up a step):
B
A
E
A
G
D
A
G
D
A
G
D
A
G
D
Yeah!
There's nothing in the street looks any different to me And the slogans are replaced by-the-by And the parting on the left is now parting on the right And the beards have all grown longer overnight
A
G
D
A
G
D
A
G
D
A
G
D
Yeah!
A
G
D
Meet the new boss
A
G
D
Same as the old boss