Chordproc: Big Star

Big Star


  1. Give Me Another Chance
  2. I'm In Love With A Girl
  3. September Gurls
  4. Try Again
  5. Watch The Sunrise

Give Me Another Chance

D* xx0775
Dmaj9 xx0655
D13 xx0577
A* x02250
D*
Dmaj9
D13
G
Em7
Asus4
A
You feel sad 'cause I got mad and I'm sorry, I'm sorry
D*
Dmaj9
D13
G
/f#
Things I said made things seem bad but don't worry
E
Esus4
E
Esus4
Cos it's gonna be all right now, be ok
A7sus4
A6
Asus2
A6
You know I just don't think before I speak
C
Bm
A
G
C
Bm
A
G
I've been looking far to find something to believe in my mind
/f#
E
A7sus4
D
And I thought it was you
D*
Dmaj9
D13
G
Em7
Asus4
A
All this time since you've been mine I've been angry, so angry
D*
Dmaj9
D13
G
/f#
Made it known I could make it alone but I'm changing
E
Esus4
E
Esus4
Cos I'm gonna be all right now, be ok
A7sus4
A6
Asus2
A6
You know I just woke up and I see the way
C
Bm
A
G
C
Bm
A
G
Don't give up on me so fast, I see it's me that's wrong at last
/f#
E
A7sus4
D
Give me another chance
Bm
Em
Am
D
It's so hard just to stay alive each day
Gm
C*
Fadd9
A
Asus4
A*
And I really can't go on this way, oh no, oh no
D*
Dmaj9
D13
G
Em7
Asus4
A
D*
Dmaj9
D13
G
/f#
E
Esus4
E
Esus4
A7sus4
A6
Asus2
A6
C
Bm
A
G
C
Bm
A
G
Don't give up on me so fast, I see it's me that's wrong at last
/f#
E
A7sus4
D
Dsus2
Dsus4
D
Give me another chance



I'm In Love With A Girl

F#* 202200
Intro
E
E
F#*
I'm in love with a girl
E
F#*
Finest girl in the world
B7
I didn't know
A
E
I could feel this way
E
F#*
Think about her all the time
E
F#*
Always on my mind
B7
I didn't know
A
About love
A
E
All that a man should do is try, Oh, Oh
A
E
B7
All that I want to do is try, Oh
E
F#*
I'm in love with a girl
E
F#*
Finest girl in the world
B7
I didn't know
A
That this could happen to me



September Gurls

Capo II
G/d
A/d
G/d
D
e|---7-7-(0)-|-5-5-(0)-3-3-(0)-|-2---2-2-------2-|-2-2---2---2-|
B|---8-8-(0)-|-5-5-(0)-3-3-(0)-|-3---3-3-------3-|-3-3---3---3-|
G|---7-7-(0)-|-6-6-(0)-4-4-(0)-|-2---2-2-------2-|-2-2---2---2-|
D|---0-0-----|-0-0-----0-0-----|-0---0-0-------0-|-0-0---0---0-|
A|-----------|-----------------|-----------------|-------------|
E|-----------|-----------------|-----------------|-------------|
D
A
September girls do so much
G
Em
I was your Butch until we touched
D
A
I loved you, well, never mind
G
Em
I've been crying all the time
D
A
G
December boys got it bad
D
A
G
December boys got it bad
D
G
September girls, I don't know why How can I deny what's inside? Even though I keep away They will love all our days December boys got it bad December boys got it bad
D
A
A7sus4
A
A7sus4
When I get to bed late at night
A
A7sus4
A
A7sus4
That's the time she makes things right
A
A7sus4
A
A7sus4
Ooh, when she makes love to me Oooh...
D
A
G
D
A
G
September girls do so much I was your butch until we touched I loved you, well, never mind I've been crying all the time December boys got it bad December boys got it bad December boys got it bad
D
A
G
D
A
G



Try Again

Tuning : DGDGBD (Open G)
G x00000
G' x0C0C0
Gsus4 x0A0A0
G* x09080
C/g x02010
C/g' x0E0D0
D 077777
C x55555
Eb x88888
Em 202000
Intro
G'
Gsus4
C/g'
G'
x2
Verse 1
G'
Gsus4
G*
D
Lord I've been trying to be what I should
G'
Gsus4
G*
D
Lord I've been trying to do what I could
C
Eb
But each time it gets a little harder
G
Em
C/g
I feel the pain
C
G'
But I'll try again
Instrumental over verse chords
Verse 2
Lord, I've been trying to be understood And lord, I've been trying to do as you would But each time it gets a little harder I feel the pain But I'll try again



Watch The Sunrise

Tuning: DGDGBD (Open G)
G : x00000
Am : x02010
Bm : x04030
C : x05050
D : x07070
Intro
--0----0--0--0--|
-10/12-12-10-8--|
--0----0--0--0--| x2
-10/12-12-10-9--|
--0----0--0--0--|
----------------|
--0----0--0--0-x-0-0-0-0-|
-10/12-12-10-8-x-7-7-7-8-|
--0----0--0--0-x-0-0-0-0-|
-10/12-12-10-9-x-7-7-7-9-|
--0----0--0--0-x-0-0-0-0-|
-------------------------|
--0----0--0--0--|
-10/12-12-10-8--|
--0----0--0--0--| x2
-10/12-12-10-9--|
--0----0--0--0--|
----------------|
--0----0--0--0-x-0-0-0-0-|
-10/12-12-10-8-x-7-7-7-8-|
--0----0--0--0-x-0-0-0-0-|
-10/12-12-10-9-x-7-7-7-9-|
--0----0--0--0-x-0-0-0-0-|
-------------------------|
Strum this from 0:10-0:16
-0------------------------|
-7------------------------|
-0------------------------|
-7------------------------|
-0------------------------|
--------------------------|
0:17-0:21
--0----0--0--0---0--0--0--0--0--0--0---|
-10/12-12-10-8--12-12-12-10-10-10-10---|
--0----0--0--0---0--0--0--0--0--0--0---|
-10/12-12-10-9--12-12-12-10-10-10-10---|
--0----0--0--0---0--0--0--0--0--0--0---|
---------------------------------------|
0:22-0:26
--0--0--0--0--0--0--0--0---0-0-0-0-0-0---|
-12-12-12-12-12-12-12-12--10-8-7-7-7-8---|
--0--0--0--0--0--0--0--0---0-0-0-0-0-0---|
-12-12-12-12-12-12-12-12--10-9-7-7-7-9---|
--0--0--0--0--0--0--0--0---0-0-0-0-0-0---|
-----------------------------------------|
0:27-0:32
-0-0--0-0--0-0-0-0---0--0-0-0---0--0---------|
-7-7--5-3--1-1-1-1/3-1--0-0-1-1-1--0---------|
-0-0--0-0--0-0-0-0---0--0-0-0-0-0--0---------|
-7-7--5-4--2-2-2-2/4-2--0-0-2-2-2--0---------|
-0-0--0-0--0-0-0-0---0--0-0-0---0--0---------|
---------------------------------------------|
Main Riff
----------------5-5-(5)--|
-------5p3---3--5-5-(5)--|
-----------4----5-5-(5)--| x4
----------------5-5-(5)--|
----0--------------------|
--0----------------------|
Verse 1
G
Am
Bm
Am
I can feel it, now it's time
G
Am
Bm
Am
Open your eyes
G
Am
Bm
Am
Fears be gone, it won't be long
G
Am
Bm
Am
There's a light in the sky
C
Bm
It's okay to look outside
C
D
The day it will abide and watch the sunrise
Verse 2
Sun, it shines on all of us We are one in it's hand Come inside and light my room like the heart of every man It's okay to look outside The day it will abide and watch the sunrise
Instrumental
---0--0--0--0--0--0--0--0---0--0--0--0--0--0--0--0--0--|
--12-12-12-12-13-12-10-12--13-13-13-13-15-13-13-15-13--|
---0--0--0--0--0--0--0--0---0--0--0--0--0--0--0--0--0--| x2
--12-12-12-12-14-12-10-12--14-14-14-14-16-14-14-16-14--|
-0-0--0--0--0--0--0--0--0---0--0--0--0--0--0--0--0--0--|
-------------------------------------------------------|
--0--0--0--0--0--0--0--0--0-0-0-0--0-0-0-0--0-0-0-0--0-0-0-0-|
-12-12-12-12-10-10-10-10--8-8-8-8--7-7-7-7--5-5-5-5--3-3-0-0-|
--0--0--0--0--0--0--0--0--0-0-0-0--0-0-0-0--0-0-0-0--0-0-0-0-|
-12-12-12-12-10-10-10-10--9-9-9-9--7-7-7-7--5-5-5-5--4-4-0-0-|
--0--0--0--0--0--0--0--0--0-0-0-0--0-0-0-0--0-0-0-0--0-0-0-0-|
-------------------------------------------------------------|
-0-0-0-0-0--0---------------|
-0-0-1-0-1--0---------------|
-0-0-0-0-0--0---------------| then main riff x4
-0-0-2-0-2--0---------------|
-0-0-0-0-0--0---------------|
----------------------------|
Verse 3
I can feel it, now it's time Open your eyes Fears be gone, it won't be long There's a light in the sky It's okay to look outside Your love it will abide and watch the sunrise
Outro
G
Am
Bm
Am
G