Chordproc: Bruce Cockburn

Bruce Cockburn


  1. After The Rain
  2. All The Diamonds
  3. Celestial Horses
  4. If I Had A Rocket Launcher
  5. Last Night Of The World
  6. Lovers In A Dangerous Time
  7. Mighty Trucks Of Midnight
  8. Pacing The Cage
  9. They Call It Democracy
  10. Wondering Where The Lions Are
  11. World Of Wonders

After The Rain

Tuning: EADF#BE
This starts off kind of free flowing, and then moves into rhythmic 4/4 time.
Bars 21-24 don't quite sound right: I believe the hammer-on is only done
once in bars 22 and 23, but I couldn't quite hear exactly what he was doing.
Chords:
x00020
x04320
442000
220000
0222xx
Intro (free flowing)
|--------------------------|--------------------------|
|--2-h3-p2-----2-h3--2-----|----------2--0------------|
|--0--------0--------------|-------3--------0--------0|
|--0-----------------------|-4-----------------2------|
|--0-----------------------|----0-----0-----------4---|
|--------------------------|-------------4------------|
^ ^ v
|-------|--------------------0-----|--------------0-----0--0--|
|-------|-----------0--------0-----|--------------0-----0--0--|
|-------|--0--------0--------0-----|--------------0-----0--0--|
|-2-----|--0--------0--------------|--------------------------|
|----4\-|--2-----------------------|--------------------------|
|---(4)\|--2-----------------------|--------------------------|
|------------------------|----------------0-------|
|------------------------|----------------0-------|
|-------x--0--------0----|----------0-------------|
|-------x--0--------0----|----------0-------------|
|-0-h2--x--2-----2-------|----2-------------------|
|-0-h2--------2-----2----|-2-----2-----2-----2----|
1
2
3
4
|---------------0------|----------------------|----------------------|----------------------|
|-2-h3-p2-2-h3-----2---|-----------------2----|-0--------------------|----------------------|
|-0--------------------|--------------3-------|----0-------0---------|---------0------------|
|-0--------------------|---------4------------|------2--------2------|----2----------2------|
|-0-----0----0-----0---|-0----0-----0----0----|---------4----------4-|------------------4\--|
|----------------------|----------------------|-4----4-----4----4----|-4-----4----4-----4\--|
5
6
7
8
|----------------------|----------------------|----------------------|---------------0------|
|----------------------|----------------------|----------------------|---------0-----0------|
|-0-------0----------0-|-------x--0----0----0-|-------x--0-------0---|---------0------------|
|-0-------0----------0-|-------x--0----0----0-|-------x--0-------0---|----------------------|
|-2-------2-----2------|--h(2)-x--2----2------|--h(2)-x--2----2------|----2-----------------|
|-2----2-----2-----2---|-0-h2-------2-----2---|-0-h2-------2-----2---|-2-----2----2----2----|
9 10 ^ 11 12
|----------------------|-0---2------0---------|----------------------|----------------------|
|-2-------2-------2----|-2-------3----2-----0-|---------0--------0---|----------------------|
|-0-------0-------0----|-0---------------3----|---------0--------0---|---------------0------|
|-0-------0--.----0----|----------------------|---------------2------|---------2------------|
|-0----0-----0----0----|----------------------|----------------------|----4---------------0-|
|----------------------|----------------------|-4----4-----4-----4---|-4-----4----4----4----|
13
14
15
16
|----------------------|---------------0------|----------------------|---------------0------|
|----------------------|---------------0------|----------------------|---------------0------|
|-------x-0------------|-x--0-----------------|-------x-0------------|-x--0-----------------|
|-------x-0------------|-x--0----0----------0-|-------x-0------------|-x--0----0------------|
|--h(2)-x-2-----2--h(2)|-x--2-----------------|--h(2)-x-2-----2--h(2)|-x--2-----------------|
|-0-h2-------2----0-h2-|-------2----2----2----|-0-h2-------2----0-h2-|-------2----2-----2---|
Repeat bars 9 to 16 once, then (lyrics start here):
17
.
18
19
20
|----------------------|----------------------|----------------------|----------------------|
|-2-------2-------2----|--------------2-------|-0-------0-------0----|----------------------|
|-0-------0-------0----|---------0------------|-0-------0-------0----|---------------0------|
|-0-------0--.----0----|----0---------------0-|-2------------2-------|---------2----------2-|
|-0----0-----0----0----|-0-----0----0----0----|----------------------|----4-----------------|
|----------------------|----------------------|-4----4-----4----4----|-4-----4----4----4----|
After the rain and...
21
22
23
24
|----------------------|----------------------|----------------------|----------------------|
|----------------------|--------------0-------|----------------------|---------------0------|
|-------x--0-----------|-x--0---------0-------|-------x-0------------|-x--0----------0------|
|-------x--0-----------|-x--0----0------------|-------x-0------------|-x--0----0------------|
|--h(2)-x--2----2--h(2)|-x--2---------------2-|--h(2)-x-2----2---h(2)|-x--2---------------2-|
|-0-h2-------2----0-h2-|-------2----2----2----|-0-h2-------2----0-h2-|-------2----2-----2---|
Repeat bars 17 to 24 once.
Repeat bars 9 to 16 once.
Repeat bars 17 to 22 once (lyrics start again), then:
25
26
27
28
|----------------------|---------0------------|----------------------|----------------------|
|--------------------0-|---------0-----0------|----------------------|----------------------|
|---------0----------0-|---------------0------|----------------------|-2-h3-------2---------|
|---------0------------|--------------------0-|---------2------------|-2----------2---------|
|----2----------2------|----2-----------------|---2----------2-----2-|----------------------|
|-2-----2----2-----2---|-2-----2----2----2----|-0----0----0-----0----|-0-----0----0----0----|
29
30
31
32
|--------------------Trill-------0------------|----------------------|----------------------|
|---------2------2-h3p2|p0--2-h3------3-p2----|----------------------|----------------------|
|-0--------------------|--------------------3-|---------------2------|-2-h3-------2---------|
|----------------------|----------------------|-2--------------------|-2----------2---------|
|-0----0-----0---0-----|-0-----0----0----0----|---------2----------2-|----------------------|
|----------------------|----------------------|-0----0-----0----0----|-0-----0----0----0----|
Repeat bars 29 to 32 once, then
33 34 35 STRUM 36 37 STRUM 38
|----------------------|---------------0------|--------|-----|--------|-----|
|-----------------2----|---------2-----2------|--------|-----|--------|-----|
|-0-------0-------0----|----0----0----------0-|--------|-----|--------|-----|
|-0-------0-------0----|----0---------------0-|--7-----|--7--|--6-----|--6--|
|-0----0-----0----0----|-0-----0----0----0----|--7-----|--7--|--7-----|--7--|
|----------------------|----------------------|--?-----|--?--|--------|-----|
Repeat bars 35 to 38 once.
Repeat bars 9 to 16 twice.
Repeat bars 17 to 24 twice (main lyrics begin again).
Repeat bars 9 to 16 once.
Repeat bars 17 to 22 once.
Repeat bars 25 to 32 once.
Repeat bars 29 to 32 once.
Repeat bars 33 to 38 once.
Repeat bars 35 to 38 once.
Repeat bars 9 to 16 once, then the closing part with lead:
39
40
41
42
|----Trill--------0-h4-|p0--------------------|----------------------|----------------------|
|---2h3p2p0--2-h3------|----3-p2---3-p2-p0----|-0--------------------|----------------------|
|----------------------|--------------------0-|---0--------0---------|---------0------------|
|----------------------|----------------------|------2--------2------|----2----------2------|
|-0----0-----0----0----|-0-----0---0-----0----|---------4----------4-|------------------4\--|
|----------------------|----------------------|-4----4-----4----4----|-4-----4----4-----4\--|
43
44
45
46
|----------------------|----------------------|----------------------|----------------------|
|----------------------|----------------------|----------------------|----------------------|
|-0-------0----------0-|-------x-0-----0----0-|-------x--0----0----0-|-------x--0----0----0-|
|-0-------0----------0-|-------x-0-----0----0-|-------x--0----0----0-|-------x--0----0----0-|
|-2-------2-----2------|--h(2)-x-2-----2------|--h(2)-x--2----2------|--h(2)-x--2----2------|
|-2----2-----2-----2---|-0-h2-------2-----2---|-0-h2--------2----2---|-0-h2--------2----2---|
43
44
45
46
|---9-----9-------0--5-|-2-p0------0----------|----------------------|----------------------|
|-----10----10--7------|------2-------2-------|----------------------|----------------------|
|----------------------|---------0-------0----|----------------------|----------------------|
|----------------------|--------------------2-|-4--2-----------------|---------------2------|
|-0----0-----0----0----|-0----0----0-----0----|----------4-----------|---------4-----4-(4)\-|
|----------------------|----------------------|-4-----4-----4----4---|-4----4-----4-----4\--|
|----------------------|----------------------|----------------------|----------------------|
|----------------------|----------------------|----------------------|----------------------|
|---------0-----0----0-|-------x-0-----0----0-|-------x-0--------x-0-|-------x-0--------x-0-|
|-0-------0-----0----0-|-------x-0-----0----0-|-------x-0--------x-0-|-------x-0--------x-0-|
|-2-------2-----2------|--h(2)-x-2-----2----2-|--h(2)-x-2---h(2)-x-2-|--h(2)-x-2---h(2)-x-2-|
|-2----2-----2-----2---|-0-h2-------2-----2---|-0-h2-------0-h2------|-0-h2-------0-h2------|
Free flowing
|----------------------|-2-----0--------------|----------------------|----------------------|
|-2----2-----2---------|----3-----2-------0---|-0----0---------------|----------------------|
|-0----0-----0---------|-------------3----0---|-0----0-------------0-|------0---------------|
|-0----0-----0---------|------------------2---|-2----2----------2----|-2----0---------------|
|-0----0-----0---------|----------------------|-----------4--4-------|------2---------------|
|----------------------|------------------4---|-4----4----4----------|------2---------------|



All The Diamonds

G6/b x20000
Fmaj7 1x3210
Fsus2 1x3010
Fsus2 x03011
G9 3x0201
Intro
C
Csus4
C
Csus4
Verse 1
C
Csus2
C
Am
G6/b
C
All the diamonds in this world
Fmaj7
Fsus2
That mean anything to me
Am
G
Fsus2
Am7
D/f#
Are conjured up by wind and sunlight
C/g
G
Sparkling on the sea
Guitar Break
G
Am
G
Am
Verse 2
C
Csus2
C
Am
G6/b
C
I ran aground in a har- bour town,
Fmaj7
Fsus2
Lost the taste for being free
Am
G
Fsus2
Am7
D/f#
Thank God, He sent some gull- chased ship to
C/g
G
To carry me to sea
Guitar Break
G
Am
G
Am
Bridge
Dm
G9
Am
*
Am7
Two thousand years, and half a world away
Dm
G9
Am
*
Am7
Dying trees still will grow greener when you pray
Verse 3
C
Csus2
C
Am
G6/b
C
Silver scales flash bright and fade
Fmaj7
Fsus2
In reeds along the shore
Am
G
Fsus2
Am7
D/f#
Like a pearl in a sea of li- quid jade
C/g
G
His ship comes shining
Am
G
Fsus2
G6/b
D/f#
Like a crystal swan in a sky of suns
C/g
G
His ship comes shining
Guitar Break
G
Am
G
Am



Celestial Horses

Here comes those silver celestial horses Rays of the moon in the mountain air I'm steeped in the steam of the last wild hot spring Maybe I'm melting but I don't care There's darkness in the canyon But the Light comes pounding through For me and for you Tomorrow may be a hissing blowtorch Maybe a silken sky shaken by the wind The world's in the wake of those whispering horses But there's always a pillar of cloud on the valley's rim There's darkness in the canyon But the Light comes pounding through For me and for you Still river full of the depths of the candles Burning for the free ones riding on the other shore Even at the heart of these breathing shadows You can feel us gathering at the door There's darkness in the canyon But the Light comes pounding through For me and for you For me and for you



If I Had A Rocket Launcher

Em 079900
D/e 077700
Cmaj7 879000 or 870000
Cmaj7/a 505500
D/b 757700
Em
D/e
Cmaj7
Here comes the helicopter
E
D
Cmaj7
Second time today
Em
D
Cmaj7
Everybody scatters
Em
D
Cmaj7
And hopes it goes away
Em
D
Cmaj7
How many kids they've murdered
Em
D
Cmaj7
Only God can say
Cmaj7/a
D/b
If I had a rocket launcher
Cmaj7/a
D/b
If I had a rocket launcher
Cmaj7/a
D/b
If I had a rocket launcher
Cmaj7/a
D/b
If I had a rocket launcher
Cmaj7/a
D/b
I'd make somebody pay
Em
D/e
Cmaj7
Em
D/e
Cmaj7
I don't believe in guarded borders and I don't believe in hate I don't believe in generals or their stinking torture states And when I talk with the survivors of things too sickening to relate If I had a rocket launcher If I had a rocket launcher If I had a rocket launcher I would retaliate On the Rio Lacuntun one hundred thousand wait To fall down from starvation or some less humane fate Cry for Guatemala with a corpse in every gate If I had a rocket launcher If I had a rocket launcher If I had a rocket launcher I would not hesitate
Em
D/e
Cmaj7
(4x)
I want to raise every voice, at least I've got to try Every time I think about it water rises to my eyes Situation desperate echoes of the victim's cry If I had a rocket launcher If I had a rocket launcher If I had a rocket launcher Some son-of-a-bitch would die



Last Night Of The World

Bass Riff
|------------------|
|------------------|
|----------0-------|
|--------0---------|
|-0h2h3------------|
|-------------3----|
Intro
Cadd9
G
Cadd9
G
Cadd9
G
Cadd9
G
Verse 1
Cadd9
G
I'm sipping Flor De Cana and lime juice, it's three a.m.
Cadd9
G
Blow a fruit fly off the rim of my glass
Cadd9
G
The radio's playing Superchunk and the friends of Dean Martinez
D
Dsus4
D
Cadd9
G
Verse 2
Cadd9
G
Midnight it was bike tires whacking the pot holes
Cadd9
G
Milling humans' shivering energy glow
Cadd9
G
Fusing the space between them with bar-throb bass and laughter
D
Dsus4
D
Cadd9
G
Chorus
Em7
Cadd9*
G
If this were the last night of the world
Em7
Cadd9*
G
What would I do?
Em7
Cadd9*
G
What would I do that was different
Am7
D7sus4
G
Unless it was champagne with you?
Cadd9
G
Verse 3
Cadd9
G
I learned as a child not to trust in my body
Cadd9
G
I've carried that burden through my life
Cadd9
G
But there's a day when we all have to be pried loose
D
Dsus4
D
Cadd9
G
Chorus
Em7
Cadd9*
G
If this were the last night of the world
Em7
Cadd9*
G
What would I do?
Em7
Cadd9*
G
What would I do that was different
Am7
D7sus4
G
Unless it was champagne with you?
Cadd9
G
Verse 4
Cadd9
G
I've seen the flame of hope among the hopeless
Cadd9
G
And that was truly the biggest heartbreak of all
Cadd9
G
That was the straw that broke me open
D
Dsus4
D
Cadd9
G
Chorus
Em7
Cadd9*
G
If this were the last night of the world
Em7
Cadd9*
G
What would I do?
Em7
Cadd9*
G
What would I do that was different
Am7
D7sus4
G
Unless it was champagne with you?
Cadd9
G



Lovers In A Dangerous Time

G
Amin
F
Don't the hours grow shorter as the days go by
G
Amin
F
You never get to stop and open your eyes
G
Amin
F
One day you're waiting for the sky to fall
G
Amin
F
And next you're dazzled by the beauty of it all
G
Amin
F
When you're lovers in a dangerous time
G
Amin
F
Lovers in a dangerous time
G
Amin
F
These fragile bodies of touch and taste
G
Amin
F
This vibrant skin, this hair like lace
G
Amin
F
Spirits open to the thrust of grace
G
Amin
F
Never a breath you can afford to waste
G
Amin
F
When you're lovers in a dangerous time
G
Amin
F
Lovers in a dangerous time
G
Amin
F
When you're lovers in a dangerous time
G
Amin
F
Lovers in a dangerous time
G
Amin
F
When you're lovers in a dangerous time
G
Amin
F
Sometimes you're made to feel as if your love's a crime
G
Amin
F
But nothing worth having comes without some kind of fight
G
Amin
F
You gotta kick at the darkness 'til it bleeds daylight
G
Amin
F
When you're lovers in a dangerous time
G
Amin
F
Lovers in a dangerous time
G
Amin
F
When you're lovers in a dangerous time
G
Amin
F
Lovers in a dangerous time



Mighty Trucks Of Midnight

Used to have a town but the factory moved away Down to Mexico where they work for hardly any pay Used to have a country but they sold it down the river Like a repossessed farm auctioned off to the highest bidder Mighty trucks of midnight Moving on Moving on Wave a flag, wave the bible, wave your sex or your business degree Whatever you want, but don't wave that thing at me The tide of love can leave your prizes scattered But when you get to the bottom it's the only thing that matters Mighty trucks of midnight Moving on Moving on I believe it's a sin to try and make things last forever Everything that exists in time runs out of time some day Got to let go of the things that keep you tethered Take your place with grace and then be on your way



Pacing The Cage

Capo III
G/b x20033
Fsus2/a x03011
G 3x0033
Am x07555
Am7 x07577
C
G/b
Fsus2/a
Sunset is an angel weeping
C
G/b
Fsus2/a
Holding out a bloody sword
C
G/b
Fsus2/a
No matter how I squint I cannot
C
G/b
Fsus2/a
Make out what it's pointing toward
F
G
Sometimes you feel like you've lived too long
Am
Am7
Am
G(iii)
Days drip slowly on the page
F
/g
F
/g
You catch yourself pacing the cage
I've proven who I am so many times The magnetic strips worn thin And each time I was someone else And everyone was taken in Powers chatter in high places Stir up eddies in the dust of rage Set me to pacing the cage I never knew what you all wanted So I gave you everything All that I could pillage All the spells that I could sing It's as if the thing were written In the constitution of the age Sooner or later you'll wind up pacing the cage
Solo
Sometimes the best map will not guide you You can't see what's round the bend Sometimes the road leads through dark places Sometimes the darkness is your friend Today these eyes scan bleached out land For the coming of the outbound stage Pacing the cage Pacing the cage



They Call It Democracy

D
Padded with power here they come
Em
G
International loan sharks backed by the guns
D
Of market hungry military profiteers
Em
G
Whose word is a swamp and whose brow is smeared
D
Em
G
With the blood of the poor
Who rob life of its quality Who render rage a necessity By turning countries into labour camps Modern slavers in drag as champions of freedom Sinister cynical instrument Who makes the gun into a sacrament The only response to the deification Of tyranny by so-called "developed" nations' Idolatry of ideology North south east west Kill the best and buy the rest It's just spend a buck to make a buck You don't really give a flying fuck About the people in misery
A
IMF dirty MF
A
Takes away everything it can get
A
Always making certain that there's one thing left
A
D
Em
G
D
Em
G
Keep them on the hook with insupportable debt
I see the paid-off local bottom feeders Passing themselves off as leaders Kiss the ladies shake hands with the fellows And it's open for business like a cheap bordello And they call it democracy, and they call it democracy And they call it democracy, and they call it democracy You see the loaded eyes of the children too Trying to make the best of it the way kids do One day you're going to rise from your habitual feast To find yourself staring down the throat of the beast They call the revolution IMF dirty MF Takes away everything it can get Always making certain that there's one thing left Keep them on the hook with insupportable debt And they call it democracy



Wondering Where The Lions Are

Capo II
Verse
D
D
E|--------5-----------5-----|--------5--------5--------|
B|--------7-----------7-----|--------7-----5--7-p5-----|
G|-----7-----7-----7-----7--|-----7-----7-----------7--|
D|--------0-----------0-----|--------0-----------0-----|
A|--------------------------|--------------------------|
D|--0-----------0-----------|--0-----------0-----------|
G6
G6
E|--0--------------0--------|--0--------------0--------|
B|--------0--------0--------|--------0--------0--------|
G|-----7-----7-----------7--|-----7-----7-----------0--|
D|--------7-----------7-----|--------7-----------7-----|
A|--------------------------|--------------------------|
D|--5-----------5-----------|--5-----------5-----------|
Chorus
Em7
Em7
E|--------3-----------3-----|--------3-----------3-----|
B|--------3-----------3-----|--------3-----------3-----|
G|-----0-----0-----0-----0--|-----0-----0-----0-----0--|
D|--------0-----------0-----|--------0-----------0-----|
A|--------------------------|--------------------------|
D|--2-----------2-----------|--2-----------2-----------|
Dadd9
Dadd9
E|--------0-----------0-----|--------0-----------0-----|
B|--------3-----------3-----|--------3-----------3-----|
G|-----2-----2-----2-----2--|-----2-----2-----2-----2--|
D|--------4-----------4-----|--------4-----------4-----|
A|--------------------------|--------------------------|
D|--0-----------0-----------|--0-----------0-----------|
Intro
D
D
G6
G6
D
D
G6
G6
Verse 1
D
D
Sun's up, uh huh, looks okay
G6
G6
The world survives into another day
D
D
And I'm thinking 'bout eternity
G6
G6
D
D
G6
G6
Some kinda ecstasy got a hold on me
D
D
Had another dream about lions at the door
G6
G6
They weren't half as fright'ning as they were before
D
D
But I'm thinking 'bout eternity
G6
G6
D
D
G6
G6
Some kinda ecstasy got a hold on me
Verse 2
D
D
Walls windows trees, waves coming through
G6
G6
You be in me and I'll be in you
D
D
Together in eternity
G6
G6
D
D
G6
G6
Some kinda ecstasy got a hold on me
D
D
Up among the firs where it smells so sweet
G6
G6
Or down in the valley where the river used to be
D
D
I got my mind on eternity
G6
G6
Some kinda ecstasy got a hold on me
Chorus
Em7
Em7
And I'm wondering where the lions are
Dadd9
Dadd9
I'm wondering where the lions are
Em7
Em7
I'm wondering where the lions are
Dadd9
Dadd9
I'm wondering where the lions are
Em7
Em7
I'm wondering where the lions are, m-hm
Dadd9
Dadd9
Em7
Em7
Dadd9
Dadd9
wondering where the lions are aah aah
Verse 3
D
D
Huge orange flying boat rises off a lake
G6
G6
Thousand year old petroglyphs doing a double take
D
D
Pointing a finger at eternity
G6
G6
D
D
G6
G6
I'm sitting in the middle of this ecstasy
D
D
Young men marching, helmets shining in the sun
G6
G6
D
Polished and precise like the brain behind the gun (should be!)
D
They got me thinking 'bout eternity
G6
G6
D
D
G6
G6
Some kinda ecstasy got a hold on me
Chorus
Em7
Em7
And I'm wondering where the lions are
Dadd9
Dadd9
I'm wondering where the lions are
Em7
Em7
I'm wondering where the lions are
Dadd9
Dadd9
I'm wondering where the lions are
Em7
Em7
I'm wondering where the lions are, m-hm
Dadd9
Dadd9
Em7
Em7
Dadd9
Dadd9
wondering where the lions are aah aah
Verse 4
D
D
Freighters on the nod on the surface of the bay
G6
G6
D
One of these days they're gonna sail away
D
Gonna sail into eternity
G6
G6
D
D
G6
G6
Some kinda ecstasy got a hold on me
Chorus
Em7
Em7
And I'm wondering where the lions are
Dadd9
Dadd9
I'm wondering where the lions are
Em7
Em7
I'm wondering where the lions are
Dadd9
Dadd9
I'm wondering where the lions are
Em7
Em7
I'm wondering where the lions are, m-hm
Dadd9
Dadd9
Em7
Em7
Dadd9
Dadd9
wondering where the lions are aah aah



World Of Wonders

Capo V
Bm x2003x
Bmadd9 7x087A
Bmaddb9 7x0879
Bmadd9 x2002x
Bm(vii) 7x007x
Gmaj7 3x0032
Bm* 7x0807 (no 5th ??)
Asus2 x02300
Bm9b5 7x0705
INTRO:
Bm
Bmadd9
|--------------------------------|--------------------------------|
|-3---------3-----3---------3----|-3---------3-----3-------2-s-7--|
|-0-----0---0-----0-----0---0----|-0-----0---0-----0-----0-0------|
|-----0-------0-------0-------0--|-----0-------0-------0-------0--|
|-2-------2-------2-------2------|-2-------2-------2-------2------|
|--------------------------------|--------------------------------|
Bm(vii)
|--------------------------------|-------------------------------|
|-7---------7-----7---------7----|-7--------7-----7---------7----|
|-0-----0---0-----0-----0---0----|-0----0---0-----0-----0---0----|
|-----0-------0-------0-------0--|----0-------0-------0-------0--|
|--------------------------------|-------------------------------|
|-7-------7-------7-------7------|-7------7-------7-------7------|
I
Repeat
Bm
Bmadd9
|--------------------------------|--------------------------------|
|-3---------3-----3---------3----|-3---------3-----3-------2-s-7--|
|-0-----0---0-----0-----0---0----|-0-----0---0-----0-----0-0------|
|-----0-------0-------0-------0--|-----0-------0-------0-------0--|
|-2-------2-------2-------2------|-2-------2-------2-------2------|
|--------------------------------|--------------------------------|
Bm(vii)
|--------------------------------|--------------------------------|
|-7---------7-----7---------7----|-7---------7-----7---------7----|
|-0-----0---0-----0-----0---0----|-0-----0---0-----0-----0---0----|
|-----0-------0-------0-------0--|-----0-------0-------0-------0--|
|--------------------------------|--------------------------------|
|-7-------7-------7-------7------|-7-------7-------7-------7------|
Bm
Bmadd9
|--------------------------------|--------------------------------|
|-3---------3-----3---------3----|-3---------3-----3-------2-s-7--|
|-0-----0---0-----0-----0---0----|-0-----0---0-----0-----0-0------|
|-----0-------0-------0-------0--|-----0-------0-------0-------0--|
|-2-------2-------2-------2------|-2-------2-------2-------2------|
|--------------------------------|--------------------------------|
Bm(vii)
|--------------------------------|-10------9-------7-------5------|
|-7---------7-----7---------7----|-0-------0-------0-------0------|
|-0-----0---0-----0-----0---0----|-------0---------------0--------|
|-----0-------0-------0-------0--|-----0-------0-------0-------0--|
|--------------------------------|--------------------------------|
|-7-------7-------7-------7------|-7-------7-------7-------5------|
CHORUS:
Gmaj7
|(0)----------------------------|-2-----------------------------|
|-0-----------2-----------2---3-|-3-------3---2-----------3-----|
|-0-----0-----0-----0-----0-----|-------0-5---3-----0-----2-----|
|-----0-------0-------0-------0-|-----0-------0-------0-------0-|
|-------------------------------|-------------------------------|
|-3-------3-------3-------3-----|-3-------3-------3-------3-----|
Asus2
|-------------0-----------0------|---------------0----------------|
|-0-----------0-----------0------|-----------0-------0-------0----|
|-3-----3-----------3-----------3|-----------------------3--------| D.S. for
|-----2-------2-------2-------2--|-----0h2-----2-------2-------2--| verse 2 & 3
|-0-------0-------0-------0------|-0-------0-------0-------0------|
|--------------------------------|--------------------------------|
Repeat
BRIDGE:
Bmadd9
Bmaddb9
|-10--------10----10--------10---|-9---------9-----9---------9----|
|-7---------7-----7---------7----|-7---------7-----7---------7----|
|-8-----8-------8-------8-------8|-8-----8-------8-------8-------8|
|-----0-------0-------0-------0--|-----0-------0-------0-------0--|
|--------------------------------|--------------------------------|
|-7-------7-------7-------7------|-7-------7-------7-------7------|
Bm*
Bm9b5
|-7---------7-----7---------7----|-5---------5-----5---------5----|
|-0---------0-----0---------0----|-0---------0-----0---------0----|
|-8-----8-------8-------8-------8|-7-----7-------7-------7-------7| D.S. for
|-----0-------0-------0-------0--|-----0-------0-------0-------0--| verse 4 al coda
|--------------------------------|--------------------------------|
|-7-------7-------7-------7------|-7-------7-------7-------7------|
Repeat 4 times
Bm
Bmadd9
|--------------------------------|--------------------------------|
|-3---------3-----3---------3----|-3---------3-----3-------2-s-7--|
|-0-----0---0-----0-----0---0----|-0-----0---0-----0-----0-0------|
|-----0-------0-------0-------0--|-----0-------0-------0----------|
|-2-------2-------2-------2------|-2-------2-------2-------2------|
|--------------------------------|--------------------------------|
Bm(vii)
|--------------------------------|-------------------------------|
|-7---------7-----7---------7----|-7--------7-----7---------7----|
|-0-----0---0-----0-----0---0----|-0----0---0-----0-----0---0----|
|-----0-------0-------0-------0--|----0-------0-------0-------0--|
|--------------------------------|-------------------------------|
|-7-------7-------7-------7------|-7------7-------7-------7------|
Repeat and fade