Chordproc: Eric Clapton

Eric Clapton


  1. Badge
  2. Before You Accuse Me
  3. Bell Bottom Blues
  4. Change The World
  5. Cocaine
  6. Crossroads
  7. I Shot The Sheriff
  8. Lay Down Sally
  9. Layla (Unplugged)
  10. Ramblin' On My Mind
  11. Strange Brew
  12. Sunshine Of Your Love
  13. Tears In Heaven
  14. White Room
  15. Wonderful Tonight

Badge

Intro
|
Am(add9)
C
|
D
|
Am(add9)
C
|
D
|
Verse
Am
D
Em
(
Add9
) Thinkin' 'bout the times your drove in my car.
Am
D
Em(add9)
Thinkin' that I might have drove you too far.
C
Am
Bm
Am(add9)
And I'm thinkin' bout the love that you laid on my table.
Am
D
Em(add9)
I told you not to wander 'round in the dark.
Am
D
Em(add9)
I told you 'bout the swans, that they live in the park.
C
Am
Bm
Am(add9)
D2
Then I told you 'bout our kid, now he's married to Mable.
Bridge
|
Cadd9
G/b
G
|
D2
|
Cadd9
G/b
G
|
D2
| (
D2
)
Cadd9
G/b
G
D2
Yes, I told you that the light goes up and down.
Cadd9
G/b
G
D2
Don't you notice how the wheel goes 'round.
Cadd9
G/b
G
D2
And you better pick yourself up from the ground
Cadd9
G/b
G
D2
before they bring the curtain down.
Cadd9
G/b
G
D2
Yes, before they bring the curtain down.
Guitar Solo
|
Cadd9
G/b
G
|
D2
|
Cadd9
G/b
G
|
D2
|
Am
D
Em(add9)
Talkin' 'bout a girl that looks quite like you.
Am
D
Em(add9)
She didn't have the time to wait in the queue.
C
Am
Bm
Am(add9)
She cried away her life since she fell off the cradle.



Before You Accuse Me

Chorus
E7
A7
E7
Before you accuse me, take a look at yourself
A7
E7
Before you accuse me, take a look at yourself
B7
You say I'm spending my money on other women
A7
E7
B7
You takin' money from from someone else.
Verse 1
E7
A7
E7
I called your mama, 'bout three or four nights ago
A7
E7
I called your mama, 'bout three or four nights ago
B7
A7
E7
B7
Well you're mamma said son: "Don't you call my daughter no more!"
Chorus
E7
A7
E7
Before you accuse me, take a look at yourself
A7
E7
Before you accuse me, take a look at yourself
B7
You say I'm spending my money on other women
A7
E7
B7
You takin' money from from someone else.
Solo 12 bars
Verse 2
E7
A7
E7
Come back home baby, try my love one more time
A7
E7
come back home baby, try my love one more time
B7
A7
E7
B7
You know when things don't go to suit you I think I'll lose my mind.
Solo 12 bars
Chorus
E7
A7
E7
Before you accuse me, take a look at yourself
A7
E7
Before you accuse me, take a look at yourself
B7
You say I'm spending my money on other women
A7
E7
B7
You takin' money from from someone else.



Bell Bottom Blues

E/G#: 7x578x
Intro
C
E/b
Am
C/g
F
G
F
C
G
Verse 1
C
E/b
Am
Bell Bottom Blues you made me cry
C/g
F
G
F
C
G
I don't wanna lose this feeling
C
E/b
Am
If I could choose__ a place to die
C/b
F
G
It would be in your arms
Chorus
A
E/g#
F#m
D
E
Do you wanna see me crawl across the floor to you
A
E/g#
F#m
D
E
Do you wanna see me beg you to take me back, I'd gladly to do it because
A
A7
D
E
I don't want to fade away... give me one more day please
A
A7
D
E
F
G
I don't want to fade away... in your heart I want to stay
Verse 2
C
E/b
Am
It's all wrong, but it's all right
C/b
F
G
F
C
G
The way that you treat me baby
C
E/b
Am
Once I was strong, but I lost the fight
C/b
F
G
You won't find a better loser
Repeat Chorus
Solo) (just play the verse chords)
Repeat Chorus
Verse 3
C
E/b
Am
Bell Bottom Blues don't say good-bye
C/b
F
G
F
G
We're surely gonna meet again
C
E/b
Am
And if we do, don't be surprised
C/b
F
G
You find me with another lover
Repeat Chorus
Outro
A
A7
D
E
I don't want to fade away... give me one more day please
A
A7
D
E
I don't want to fade away... in your heart I want to stay
A
A7
D
E
I don't want to fade away... give me one more day please
A
A7
D
E
F
G
I don't want to fade away... in your heart I want to stay



Change The World

Intro
E
F#m
G
G
F#
E
E
F#m
G
G
F#m
B7sus4
Verse 1
E
E6
E7
E7
E6
E
If I could reach the stars, pull one down for you.
E
E6
E7
E7
E6
E
Shinin' on my heart, so you could see the truth.
A
A6
A7
A7
A6
A
Then this love I have inside, is everything it seems
E
E6
E7
E7
E6
G#7
But for now I find, its only in my dreams
Chorus
F#m7
G#7
C#m
F#m
G#7
C#m
And I can change the world. I would be the sunlight in your universe
F#m7
G#7
C#m7
Cm7
Bm7
You would think our love was really some-thing good
A
E/g#
G#m
Gm
F#m
E
Baby if I could, change...... the world
Instrumental
E
E6
E7
E7
E6
E
Verse 2
E
E6
E7
E7
E6
E
If I could be king, even for a day.
E
E6
E7
E7
E6
E
I'd take you as my queen. I'd have it no other way.
G#
A
A6
A7
A7
A6
A
And our love would rule, this kingdom we have made.
E
E6
E7
E7
E6
G#7
Till then I'd be a fool, wishin for the day...
Chorus
F#m
G#7
C#m
F#m
G#7
C#m
And I can change the world. I would be the sunlight in your universe
F#m
G#7
C#m7
Cm7
Bm7
You would think our love was really some-thing good
A7
E/g#
G#m
Gm
F#m
E
Baby if I could, change the world
A7
E/g#
G#m
Gm
F#m
E
Baby if I could, change...... the world
Break
E
E6
E7
E7
E6
E
Chorus
F#m
G#7
C#m
F#m
G#7
C#m
I can change the world. I would be the sunlight in your universe
F#m
G#7
C#m7
Cm7
Bm7
You would think our love was really some-thing good
A7
E/g#
G#m
Gm
F#m
Baby if I could, change the world
A7
E/g#
G#m
Gm
F#m
Baby if I could, change the world
A7
E/g#
G#m
Gm
F#m
G
Baby if I could, change ... the World
Outro
E
E6
E7
E7
E6
E



Cocaine

Intro / Main Riff
1 + 2 + 3 + 4 + 1 + 2 + 3 + 4 + |
E
E
D
E
(
E
)
D
| - |
Verse
E
E
D
E
D
|
E
E
D
E
D
| - | If you wanna hang out you've got to ... take her out, cocaine.
E
E
D
E
D
|
E
E
D
E
D
| - | If you wanna get down, down on the ground, cocaine.
Chorus
E
D
C
B
She don't lie, she don't lie, she don't lie |
E
E
D
E
D
| - |
E
E
D
E
D
| - | Cocaine!
Verse
E
E
D
E
D
|
E
E
D
E
D
| - | If you got bad news, you wanna kick them blues, cocaine.
E
E
D
E
D
|
E
E
D
E
D
| - | When your day is done and you wanna run, cocaine.
Chorus
E
D
C
B
She don't lie, she don't lie, she don't lie |
E
E
D
E
D
| - |
E
E
D
E
D
| - | Cocaine!
Solo
|
E
E
D
E
D
| - |
E
E
D
E
D
| - | |
E
E
D
E
D
| - |
E
E
D
E
D
| - | |
E
E
D
E
D
| - |
E
E
D
E
D
| - | |
E
E
D
E
D
| - |
E
E
D
E
D
| - | |
E
E
D
E
D
| - |
E
E
D
E
D
| - | |
E
E
D
E
D
| - |
E
E
D
E
D
| - |
Verse
E
E
D
E
D
|
E
E
D
E
D
| - | If your thing is gone and you wanna ride on, cocaine.
E
E
D
E
D
|
E
E
D
E
D
| - | Don't forget this fact, you can't get it back, cocaine.
Chorus
E
D
C
B
She don't lie, she don't lie, she don't lie |
E
E
D
E
D
| - |
E
E
D
E
D
| - | Cocaine!
E
D
C
B
She don't lie, she don't lie, she don't lie |
E
E
D
E
D
| - |
E
E
D
E
D
| - | Cocaine!
Outro
|
E
E
D
E
D
| - |
E
E
D
E
D
| - |



Crossroads

Verse 1
E7
A7
E7
I went down to the crossroads, fell down on my knees
A7
E7
I went down to the crossroads, fell down on my knees
B7
A7
E7
Ask the lord up above for mercy, take me if you please.
Verse 2
E7
A7
E7
I went down to the crossroads, tried to flag a ride
A7
E7
I went down to the crossroads, tried to flag a ride
B7
A7
E7
Nobody seemed to know me, everybody passed me by.
Verse 3
E7
A7
E7
Well I'm going down to Rosedale, take my rider by my side
A7
E7
Well I'm going down to Rosedale, take my rider by my side
B7
A7
E7
You can still buy a house baby, on the riverside.
Verse 4
E7
A7
E7
You can run, you can run, tell my friends I'll be around
A7
E7
Run, you can run, tell my friends I'll be around
B7
A7
E7
Well I'm standing at the crossroads, believe I'm sinking down.



I Shot The Sheriff

CHORUS
Gm
Cm
Gm
I shot the sheriff, but I did not shoot the deputy
Gm
Cm
Gm
I shot the sheriff, but I did not shoot the deputy
VERSE 1
Eb
Dm
Gm
All around in my home town
Eb
Dm
Gm
They're trying to track me down
Eb
Dm
Gm
They say they want to bring me in guilty
Eb
Dm
Gm
For the killing of a deputy
Eb
Dm
Gm
For the life of a deputy But I say?
MAIN RIFF
|------------------------------|
|------------------------------|
|------------------------------|
|--5--3------------------------|
|--------5--3--1--5--3--1------|
|-------------------------/3---|
CHORUS
Gm
Cm
Gm
I shot the sheriff, but I swear it was in self-defense
Gm
Cm
Gm
I shot the sheriff, and they say it is a capital offense
VERSE 2
Eb
Dm
Gm
Sheriff John Brown always hated me
Eb
Dm
Gm
For what I don't know
Eb
Dm
Gm
Every time that I plant a seed
Eb
Dm
Gm
He said "Kill it before it grows"
Eb
Dm
Gm
He said "Kill it before it grows" I say!
play MAIN RIFF
CHORUS
Gm
Cm
Gm
I shot the sheriff, but I swear it was in self-defense
Gm
Cm
Gm
I shot the sheriff, but I swear it was in self-defense
VERSE 3
Eb
Dm
Gm
Freedom came my way one day
Eb
Dm
Gm
And I started out of town yeah
Eb
Dm
Gm
All of a sudden I see sheriff John Brown
Eb
Dm
Gm
Aiming to shoot me down
Eb
Dm
Gm
So I shot, I shot him down I say!
play MAIN RIFF
CHORUS
Gm
Cm
Gm
I shot the sheriff, but I did not shoot the deputy
Gm
Cm
Gm
I shot the sheriff, but I didn't shoot the deputy
VERSE 4
Eb
Dm
Gm
Reflexes got the better of me
Eb
Dm
Gm
And what is to be must be
Eb
Dm
Gm
Every day the bucket falls to the well
Eb
Dm
Gm
But one day the bottom will drop out
Eb
Dm
Gm
Yes, one day the bottom will drop out But I say
play MAIN RIFF
CHORUS
Gm
Cm
Gm
I shot the sheriff, but I did not shoot the deputy, oh no
Gm
Cm
Gm
I shot the sheriff, but I did not shoot no deputy, oh no
ENDING
Cm
Dm
Gm
Cm
Dm
Gm



Lay Down Sally

Verse
A
There is nothing that is wrong
D
In wanting you to stay here with me.
A
I know you've got somewhere to go, But won't you make yourself at home and
D
E
stay with me? And don't you ever leave.
Chorus
A
D
Lay down, Sally, and rest you in my arms.
E
A
Don't you think you want someone to talk to?
A
D
Lay down, Sally, no need to leave so soon.
E
A
I've been trying all night long just to talk to you.
Verse
A
The sun ain't nearly on the rise
D
And we still got the moon and stars above.
A
Underneath the velvet skies,
D
Love is all that matters. Won't you stay with me?
E
And don't you ever leave.
Chorus
A
D
Lay down, Sally, and rest you in my arms.
E
A
Don't you think you want someone to talk to?
A
D
Lay down, Sally, no need to leave so soon.
E
A
I've been trying all night long just to talk to you.
Guitar Solo
A
D
Verse
A
I long to see the morning light
D
Coloring your face so dreamily.
A
So don't you go and say goodbye,
D
You can lay your worries down and stay with me.
E
And don't you ever leave.
Chorus
A
D
Lay down, Sally, and rest you in my arms.
E
A
Don't you think you want someone to talk to?
A
D
Lay down, Sally, no need to leave so soon.
E
A
I've been trying all night long just to talk to you.
A
D
Lay down, Sally, and rest you in my arms.
E
A
Don't you think you want someone to talk to?
A
D
Lay down, Sally, no need to leave so soon.
E
A
I've been trying all night long just to talk to you.



Layla (Unplugged)

Dm
Bb
C
Dm
x5
Dm
Bb
C
A
C
C#m7
G#7
What will you do when you get lonely?
C#m7
C
D
E
E7
No one waiting by your side
F#m
B
E
A
You've been runnin' and hiding much too long
F#m
B
E
You know it's just your foolish pride
A
Dm
Bb
Layla
C
Dm
Dm
Bb
Got me on my knees, Layla
C
Dm
Dm
Bb
I'm beggin' darling please, Layla
C
Dm
Dm
Bb
C
A
C
Darling won't you ease my worried mind?
C#m7
G#7
I tried to give you consolation
C#m7
C
D
E
E7
Your old man he let you down
F#m
B
E
A
Like a fool, I fell in love with you
F#m
B
E
You turned my whole world upside down
A
Dm
Bb
Layla
C
Dm
Dm
Bb
You've got me on my knees, Layla
C
Dm
Dm
Bb
I'm beggin' darling please, Layla
C
Dm
Dm
Bb
C
A
C
Darling won't you ease my worried mind?
C#m7
G#7
Make the best of the situation
C#m7
C
D
E
E7
Before I finally go insane
F#m
B
E
A
Please don't say we'll never find a way
F#m
B
E
Tell me all my love's in vain
A
Dm
Bb
Layla
C
Dm
Dm
Bb
You've got me on my knees, Layla
C
Dm
Dm
Bb
I'm beggin' darling please, Layla
C
Dm
Dm
Bb
C
A
C
Darling won't you ease my worried mind?
A
Dm
Bb
Layla
C
Dm
Dm
Bb
You've got me on my knees, Layla
C
Dm
Dm
Bb
I'm beggin' darling please, Layla
C
Dm
Dm
Bb
C
A
C
Darling won't you ease my worried mind?
A
Dm
Bb
Layla
C
Dm
Dm
Bb
You've got me on my knees, Layla
C
Dm
Dm
Bb
I'm beggin' darling please, Layla
C
Dm
Dm
Bb
C
A
C
Darling won't you ease my worried mind?
A
Dm
Bb
Layla
C
Dm
Dm
Bb
You've got me on my knees, Layla
C
Dm
Dm
Bb
I'm beggin' darling please, Layla
C
Dm
Dm
Bb
C
A
C
Dm
Darling won't you ease my worried mind?



Ramblin' On My Mind

E7
A7
B7
e|-------------------| |-------------------| |-------------------|
B|-------------------| |-------------------| |----0-0--0-0--0----|
G|-------------------| |-------------------| |-------------------|
D|-------------------| |--2-2-4-4-5-5-0----| |-------------------|
A|--2-2-4-4-5-5-0----| |--0-0-0-0-0-0---4--| |--2---2------------|
E|--0-0-0-0-0-0---3b-| |-------------------| |----------------3--|
Intro
The intro starts with with a double stop (two notes played together) combined with
a bending on one of the notes, followed by some common Blues licks)
e|---7--7--|-7--7--7\----0-|-----------------------|-----------|------------------|
B|---8b-8b-|-8b-8b-8\------|-----------------------|-----------|------0---0-0-----|
G|---------|---------------|-----------------------|---0h1-2-3-|-4\---------------|
D|---------|---------------|-0tr2--0h2-------------|-2---------|------------------|
A|---------|-----------2---|-----------2-1-0-------|-----------|----2---2-----2h4-|
E|---------|---------------|-----------------3b-0--|-----------|--------------0---|
|- piano starts here I've got
Verse 1
E7
A7
E7
E7
e|-------------------|--------------------|-------------------------|-------------------------|
B|-------------------|--------------------|-------------------------|-------------------------|
G|-------------------|--------------------|-----0tr1-2-0tr1---------|-----0tr1-2 0tr1---------|
D|-------------------|--2-2-4-4-5-5-0-----|-------------------0-1-2-|-------------------0-1-2-|
A|-2-2-4-4-5-5-0-----|--0-0-0-0-0-0---4---|-----------------2-------|-----------------2-------|
E|-0-0-0-0-0-0---3b--|--------------------|-0-0---------------------|-0-0---------------------|
ramblin' I've got ramblin' I've got all on my mind
A7
A7
E7
E7
e|-------------------|--------------------|-------------------------|-------------------------|
B|-------------------|--------------------|-------------------------|-------------------------|
G|---------------2---|---------------2----|-----0tr1-2 0tr1---------|-----0tr1-2 0tr1---------|
D|-2-2-4-4-5-5-4---2-|-2-2-4-4-5-5-4---2--|-------------------0-1-2-|-------------------0-1-2-|
A|-0-0-0-0-0-0-0---0-|-0-0-0-0-0-0-0---0--|-----------------2-------|-----------------2-------|
E|-------------------|--------------------|-0-0---------------------|-0-0---------------------|
ramblin' I've got ramblin Is to leave all on my mind
B7
A7
A7
A7
e|-------------------|---------------------------|-------------------------|-------------------|
B|---0-0--0-0--0-----|---------------------------|-------------------------|----0---0----------|
G|-------------------|---------------------------|-------------------------|----2-2-2----------|
D|-------------------|-2---2----2--4b-2-4-2---2--|------0-1-2-0------------|--2----------0-1-2-|
A|-2---2---------3b--|-0-0---/4-------------4----|--------------2-1-0------|-----------2-------|
E|-------------------|---------------------------|--0-0---------------3b-0-|-------------------|
my baby, 'cause she treats me so unkind I'm goin'
Verse 2
(I'm goin') down to the station, catch that old fast milk train, you'll see. I'm going down to the station, catch that old fast milk train, you'll see. I've got the (continued as following:)
B7
e|-----------2---2-------|---------------------------|-0-----------------------|---------------|
B|---0-0---0---0---------|---------------------------|--------------------0----|---0---0-0--0--|
G|-------2---------------|---------------------------|------0tr1-1-2-2-3-------|---------------|
D|-----------------2-0-1-|-2-2--4-4--5-5--0----------|-------------------------|---------------|
A|-----------------------|-0-0--0-0--0-0-------------|-----------2-3-3-4-------|-2---2---2-----|
E|-----------------------|------------------0--------|-0--0--------------------|---------------|
Blues about Miss So 'n So, and the sun got the Blues 'bout me.
Solo
(He plays around 1 note (!) doing full, half and quarter bends. To keep the tab in a comfortable length, I've used (only for this song) bf for a full-tone bend, bh for a half tone bend, bq for a quarter tone bend and hb for hold bend, that means pick the string after bending it. It's a good idea to practice these bends before playing the solo. I think it's impossible to make an absolute exact tab of this solo, you must listen to the record)
e|----------------|----------------------------------|
B|----8bh---8bh---|-10bf-10hb-10---------------------|
G|-/9-----9-------|----------------------------------|
D|----------------|----------------------------------|
A|----------------|----------------------------------|
E|----------------|----------------------------------|
e|-----------------------------------------------|
B|-10hb-10hb-10hb-8-8bh-10hb-10bh-10bq-10br-8-10-|
G|-----------------------------------------------|
D|-----------------------------------------------|
A|-----------------------------------------------|
E|-----------------------------------------------|
(If you have problems with the scale at this position, you can also play it like)
e|--------------------|----------------------------|
B|--------------------|----------------------------|
G|-----12bh-----12bh--|-14bf-14bh-14bh-etc.--------|
D|-/14------/14-------|----------------------------|
A|--------------------|----------------------------|
E|--------------------|----------------------------|
e|-----------------------|-7-5--------------------------|---------------|
B|-10br-8---8-10-8-----5-|-----7rb-5---7-7bf-bh-7-5-7---|-7bf-7hb-7br-5-|
G|--------9---------/6---|-----------6----------------6-|---------------|
D|-----------------------|------------------------------|---------------|
A|-----------------------|------------------------------|---------------|
E|-----------------------|------------------------------|---------------|
e|-----7---------7--------------------------------------|------------------------------|
B|-7bf---7hb-7bf---7hb-5----5-7--7bf-7bf-5-5-5--7bh-----|----3-3-----------------------|
G|------------------------6--------------------------6--|-/4-----\2-2-2tr0-------------|
D|------------------------------------------------------|------------------2---0h2-----|
A|------------------------------------------------------|--------------------2---------|
E|------------------------------------------------------|------------------------------|
e|-----0--0-----0-0-----0-0---|----------------|
B|---0----0-------0-------0---|-0---0--0---0---|
G|----------3p2-----3p2-------|-1--------2-----|
D|----------------------------|----------------|
A|----------------------------|---2-2------2---|
E|-0--------------------------|----------------|
Ending
e|------------------------------3/4----|
B|------------------------------2/3----|
G|---0tr1-------2----3----4\----3/4----|
D|-------------------------------------|
A|------2-------3-3--4-4--5\-----------|
E|-0-------3b-0------------------------|



Strange Brew

A
A7
A
D
D7
A
A7
G
D7
A
Strange brew, girl what's inside of you.
A7
D7
A
A7
She's a witch of trouble in electric blue,
A7
D7
in her own mad mind she's in love with you;
A7
with you.
D7
A
Now, what you gonna do?
A7
G
D7
A
Strange brew, girl what's inside of you.
A7
D7
A
A7
She's some kind of demon messing in the glue,
A7
D7
if you don't watch out it'll stick to you;
A7
to you.
D7
A
What kind of fool are you?
A7
G
D7
A
Strange brew, girl what's inside of you.
A7
D7
A
A7
On a boat in the middle of a raging sea,
A7
D7
she would make a scene for it all to be;
A7
ignored.
D7
A
And wouldn't you be bored?
A7
G
D7
A
Strange brew, girl what's inside of you.
A7
G
D7
A7
G
D7
A7
G
D7
A7
G
D7
Strange brew, strange brew, strange brew, strange brew.
A7
G
D7
A
Strange brew, girl what's inside of you.



Sunshine Of Your Love

Intro
D/d
C
D
A
G
F
D
F/d
4x
or
e|---------------------|
B|---------------------|
G|-7-7-5-7-------------|
D|---------7-6-5-0-3-0-|
A|---------------------|
E|---------------------|
Or
e|---------------------|
B|-3-3-1-3-------------|
G|---------2-1-0-------|
D|---------------0-3-0-|
A|---------------------|
E|---------------------|
Verse
D
C
D
A
G
F
D
F/d
It's getting near dawn,
D
C
D
F/d
When lights close their tired eyes.
D
C
D
F/d
I'll soon be with you my love,
D
C
D
F/d
To give you my dawn surprise.
G
F
G
F/g
I'll be with you darling soon,
G
F
G
D
I'll be with you when the stars start falling.
D/d
C
D
A
G
F
D
F/d
2x
Chorus
A
C
G
A
I've been waiting so long
C
G
A
To be where I'm going
C
G
A
In the sunshine of your love.
D/d
C
D
A
G
F
D
F/d
Verse
D
C
D
A
G
F
D
F/d
I'm with you my love,
D
C
D
F/d
The light's shining through on you.
D
C
D
A
G
F
D
F/d
I'm with you my love,
D
C
D
F/d
It's the morning and just we two.
G
F
G
F/g
I'll stay with you darling now,
G
F
G
D
I'll stay with you till my seas are dried up.
D/d
C
D
A
G
F
D
F/d
2x
Chorus
A
C
G
A
I've been waiting so long
C
G
A
To be where I'm going
C
G
A
In the sunshine of your love.
Break
D/d
C
D
A
G
F
D
F/d
2x
Verse
D
C
D
A
G
F
D
F/d
I'm with you my love,
D
C
D
F/d
The light's shining through on you.
D
C
D
A
G
F
D
F/d
I'm with you my love,
D
C
D
F/d
It's the morning and just we two.
G
F
G
F/g
I'll stay with you darling now,
G
F
G
D
I'll stay with you till my seas are dried up.
D/d
C
D
A
G
F
D
F/d
2x
Chorus
A
C
G
A
I've been waiting so long
C
G
A
I've been waiting so long
C
G
A
I've been waiting so long
C
G
A
To be where I'm going
C
G
A
In the sunshine of your love.



Tears In Heaven

Intro
A
E/g#
F#m
D
E7sus4
E7
A
Chorus
A
E
F#m
Would you know my name,
D
A
E
If I saw you in heaven,
A
E
F#m
Would it be the same,
D
A
E
If I saw you in heaven,
Verse
F#m
C#
I must be strong,
Em
F#
and carry on,
Bm
E7
Cause I know I don't belong,
A
Here in heaven.
Link
A
E/g#
F#m
D
E7sus
E7
A
Chorus
A
E
F#m
Would you hold my hand
D
A
E
If I saw you in heaven
A
E
F#m
Would you help me stand
D
A
E
If I saw you in heaven
Verse
F#m
C#
I'll find my way,
Em
F#
through night and day
Bm
E7
Cause I know I just can't stay
A
Here in heaven
Link
A
E/g#
F#m
D
E7sus4
E7
A
Bridge
C
G/b
Am
Time can bring you down
D
G
D
Em
D
G
Time can bend your knee
C
G
Am
Time can break your heart
D
G
Have you begging please
E
Begging please
Instrumental
A
E/g#
F#m
D
E7sus4
E7
A
x2
Verse
F#m
C#
Beyond the door
Em
F#
There's peace I'm sure.
Bm
E7
And I know there'll be no more...
A
Tears in heaven
Link
A
E/g#
F#m
D
E7sus4
E7
A
Chorus
A
E
F#m
Would you know my name,
D
A
E
If I saw you in heaven,
A
E
F#m
Would it be the same,
D
A
E
If I saw you in heaven,
Verse
F#m
C#
I must be strong,
Em
F#
and carry on,
Bm
E7
Cause I know I don't belong,
A
Here in heaven.
Link
A
E/g#
F#m
F#m7
Bm
E7
Cause I know I don't belong,
A
Here in heaven.
Outro
A
E/g#
F#m
D
E7sus4
E7
E
A



White Room

Intro
|
Gm
|
F
|
Dm
|
C
| |
Gm
|
F
|
Dm
|
C
|
Am7
...
Dm
Dm/c
Dm/b
Bb
C
Dm
... In the white room with black curtains near the station. Blackroof country, no gold pavements, tired starlings. Silver horses ran down moonbeams in your dark eyes. Dawnlight smiles on you leaving, my contentment.
C
G
Bb
A7
I'll wait in this place where the sun never shines;
C
G
Bb
C
D
Wait in this place where the shadows run from themselves. You said no strings could secure you at the station. Platform ticket, restless diesels, goodbye windows. I walked into such a sad time at the station. As I walked out, felt my own need just beginning. I'll wait in the queue when the trains come back; Lie with you where the shadows run from themselves.
Deprise Intro: + Solo
At the party she was kindness in the hard crowd. Consolation for the old wound now forgotten. Yellow tigers crouched in jungles in her dark eyes. She's just dressing, goodbye windows, tired starlings. I'll sleep in this place with the lonely crowd; Lie in the dark where the shadows run from themselves.
Intro as Ending



Wonderful Tonight

Intro/Main riff
e|---------------------------------------------------------------------------------|
B|-10b-8-10-----10b-8------10b-8-10-------10b-8-10---10b-8----10b-8-10-12-13-17-15-|
G|--------------------9------------------------------------9-----------------------|
D|---------------------------------------------------------------------------------|
A|---------------------------------------------------------------------------------|
E|---------------------------------------------------------------------------------|
Verse
G
D
It's late in the evening
C
D
She's wondering what clothes to wear
G
D
She puts on her make up
C
D
And brushes her long blonde hair
C
D
And then she asks me
G
D
Em
Do I look alright?
C
D
G
And I say yes, you look wonderful tonight
Main Riff
G
D
We go a party
C
D
And everyone turns to see
G
D
This beautiful lady
C
D
Is walking around with me
C
D
And then she asks me
G
D
Em
Do you feel alright?
C
D
G
And I say yes, I feel wonderful tonight
D
C
I feel wonderful
D
G
D
Em
Because I see the love light in your eyes
C
D
And the wonder of it all
C
D
Is that you just don't realize
G
How much I love you
Main Riff
G
D
It's time to go home now
C
D
And I've got an aching head
G
D
So I give her the car keys
C
D
And she helps me to bed
C
D
And then I tell her
G
D
Em
As I turn out the light
C
D
G
I say my darling, you were wonderful tonight
Em
C
D
G
Oh my darling, you were wonderful tonight
e|---------------------------------------------------------------------------------|
B|-10b-8-10-----10b-8-------10b-8-10-------10b-8-10---10b-8---10b-8-10-12-13-17-15-|
G|--------------------9-------------------------------------9----------------------|
D|---------------------------------------------------------------------------------|
A|---------------------------------------------------------------------------------|
E|---------------------------------------------------------------------------------|