Chordproc: Little Feat

Little Feat


  1. Dixie Chicken
  2. Fat Man In The Bathtub
  3. Oh Atlanta
  4. Rock And Roll Doctor
  5. Roll Um Easy
  6. Sailin' Shoes
  7. Two Trains
  8. Willin'

Dixie Chicken

A
I've seen the bright lights of Memphis
E
And the Commodore Hotel
E7
E
E7
A
And underneath a street lamp, I met a southern belle
D
A
E
Oh, she took me to the river, where she cast her spell
E7
E
E7
A
And in that southern moonlight, she sang this song so well
A
If youlll be my Dixie chicken
E
I'll be your Tennessee lamb
E7
E
A
D
A
And we can walk together down in Dixieland
E7
A
D
A
Down in Dixieland We made all the hotspots My money flowed like wine Then the low-down southern whiskey, yea, began to fog my mind And I don't remember church bells, or the money I put down On the white picket fence and boardwalk On the house at the end of town
D
A
E
Oh, but boy do I remember the strain of her refrain
E7
E
And the nights we spent together
E7
E
A
And the way she called my name If you'll be my Dixie chicken I'll be your Tennessee lamb And we can walk together down in Dixieland Down in Dixieland
A
Well, many years since she ran away
E
Yes that guitar player sure could play
E7
E
She always liked to sing along
E7
E
A
She always handy with a song
D
A
E
But then one night at the lobby of the Commodore Hotel
E7
E
E7
E
A
I chanced to meet a bartender who said he knew her well
D
A
E
And as he handed me a drink he began to hum a song
E7
E
E7
E
A
And all the boys there, at the bar, began to sing along If you'll be my Dixie chicken I'll be your Tennessee lamb And we can walk together down in Dixieland Down in Dixieland



Fat Man In The Bathtub

Eb7
D7
G
C
Spotcheck Billy got down on his hands and knees, and he said
G
D
C
G
"Hey, mama, hey, let me check your oil, all right?" and she said,
D
G
"No, no, honey, not tonight. Come back Monday, come back Tuesday,
D
G
G
D
G
F/g
G
F/g
G
and then I might."
G
D7
G
I said Juanita, my sweet Juanita, what are you up to?
G
D7
G
I said Juanita, my sweet taquito, what are you up to?
C
Don't want nobody who won't dive for dimes. Don't want no speedballs cause I might die trying.
D
G/d
D7
Throw me a line, throw me a dime.
G
D
G
'Cause there's a fat man in the bathtub with the blues.
G
D
I hear you moan, I hear you moan
F/g
G
F/g
G
I hear you moan.
Eb7
D7
G
C
Billy got so sad dejected, put on his hat and started to run
G
D7
G
Running down the street, yelling at the top of his lungs.
G
D7
G
"All I want in this life of mine is some good clean fun.
G
D7
G
D7
G
F/g
G
All I want in this life and time is some hit and run."
G
D7
G
I said Juanita, my sweet Juanita, what are you up to?
G
D7
G
I said Juanita, my sweet taquito, what are you up to?
C
Put my money in your meter, baby, so it won't run down, but you caught me in a squeeze play on the cheesy side of town,
D
G/d
D7
Throw me a line, throw me a dime. 'Cause there's a fat man in the bathtub with the blues. I hear you moan, I hear you moan I hear you moan.



Oh Atlanta

Intro
|
Am
|
E7
|
F7
Bb
Eb
E
F
| |
F
|
F
|
F
|
F
|
F
They got a place down Kentucky
C
Right down near Ohio
G
Where you can watch the planes at night
Am
Bb
C
People line up to watch each flight
Am
Bb
C
I said watchin' them planes
Am
Bb
C
I wish I was on one
Am
E7
I'm sittin' here thinkin' 'bout my red head dream
F7
Bb
Eb
E
F
If I could on - ly see her to - night
F
C
F
Oh Atlanta, Oh Atlanta!
F
C
F
I said yeah! yeah! yeah! Atlanta, got to get back to you |
F
|
F
|
C
|
F
| |
F
|
F
|
C
|
F
|
F
|
F
Well you can drop me off on Peachtree
C
I got to feel that Georgia sun
G
And the women there in Atlanta
Am
Bb
C
They make you aw - fully glad you come
Am
Bb
C
I said watchin' them planes
Am
Bb
C
I wish I was on one
Am
E7
I'm sittin' here thinking 'bout my crazy dream
F7
Bb
Eb
E
F
If I could on - ly be there to - night
F
C
F
Oh Atlanta, Oh Atlanta!
F
C
F
I said yeah! yeah! yeah! Atlanta, got to get back to you
Eb
Bb/d
C
F
C
Bb/d
F
We make a day and how just you and me
F/a
Bb
But the music plays all night
C
They got the boogie band blowin' that's bound for hell And when they get to movin' they never stop
F
You just keep on playin' that down home beat You just keep on layin' it down hot
Solo over
|
F
| |
C
|
C
I wish I was on one
Am
E7
I'm sittin' here thinkin' bout my red haired dream
F7
Bb
Eb
E
F
If I could on - ly see her to - night
F
C
F
Oh Atlanta, Oh Atlanta!
F
C
F
I said yeah! yeah! yeah! Atlanta, got to get back to you
Coda
|
F
|
F
|
C
|
F
| |
F
|
F
|
C
|
F
| |
F
|
F
|
F
|
F
| |
F
|
F
|
F
|
F
|



Rock And Roll Doctor

E
E
D
E
E
E
E
E|----------7---7-7------------------------------------------------|
B|----------9---9-9------------------------------------------------|
G|----------9---9-9------------------------------------------------|
D|-9-9-11-9-9---9-9------------------------------------------------|
A|-7-7-7--7-7---7-7------------------------------------------------|
E|-----------------------------------------------------------------|
E
E
D
E
E
E
E
E|----------7---7-7------------------------------------------------|
B|----------9---9-9------------------------------------------------|
G|----------9---9-9------------------------------------------------|
D|-9-9-11-9-9---9-9------------------------------------------------|
A|-7-7-7--7-7---7-7------------------------------------------------|
E|-----------------------------------------------------------------|
D
B
A
E
E|---------7-------------------------------------------------------|
B|-3---4-2-9-------------------------------------------------------|
G|-2---4-2-9-------------------------------------------------------|
D|-4---4-2-9-------------------------------------------------------|
A|---------7-------------------------------------------------------|
E|-----------------------------------------------------------------|
E
D
E|-------------------------------------2---------------------------|
B|-------------------------------------3---------------------------|
G|-1-----------------------------------2---------------------------|
D|-2---------------------------------------------------------------|
A|-2---------------------------------------------------------------|
E|-----------------------------------------------------------------|
There was a woman in Georgia didn't feel just right
D
A
B
E
E|-2----------------------------------7----------------------------|
B|-3------------------------2------4--9----------------------------|
G|-2------------------------2------4--9----------------------------|
D|--------------------------2------4--9----------------------------|
A|------------------------------------7----------------------------|
E|-----------------------------------------------------------------|
She had fever all day and chills at night
D
A
B
A
E
E|-----------7-----------------------------------------------------|
B|-3p2---4-2-9-----------------------------------------------------|
G|-2-2---4-2-9-----------------------------------------------------|
D|-4p2---4-2-9-----------------------------------------------------|
A|-----------7-----------------------------------------------------|
E|-----------------------------------------------------------------|
E
D
E|-----------------------------2-----------------------------------|
B|-----------------------------3-----------------------------------|
G|-1---------------------------2-----------------------------------|
D|-2---------------------------------------------------------------|
A|-2---------------------------------------------------------------|
E|-----------------------------------------------------------------|
Now things got worse, yes a serious bind
A
D
E
E|----------------------------2------------------------------------|
B|-2--------------------------3------------------------------------|
G|-2--------------------------2-------------------------------1----|
D|-2----------------------------------------------------------2----|
A|--------------------------------------------------2---4-----2----|
E|-----------------------------------------------------------------|
At times like this it takes a man with such style I cannot often find
C#m
D
A
B
E
E|-4-------------------------------------7-------------------------|
B|-5---------------3-----------2--4------9-------------------------|
G|-6---------------2-----------2--4------9-------------------------|
D|-6---------------4-----------2--4------9-------------------------|
A|-4-------------------------------------7-------------------------|
E|-----------------------------------------------------------------|
A doctor of the heart and a doctor of mind
D
A
B
A
E
E|-----------7-----------------------------------------------------|
B|-3p2---4-2-9-----------------------------------------------------|
G|-2-2---4-2-9-----------------------------------------------------|
D|-4p2---4-2-9-----------------------------------------------------|
A|-----------7-----------------------------------------------------|
E|-----------------------------------------------------------------|
A
E
E|-----------------------------------------------------------------|
B|-2---------------------------------------------------------------|
G|-2------------------------------------------------------1--------|
D|-2------------------------------------------------------1--------|
A|-------------------------------------------------2---4--2--------|
E|-----------------------------------------------------------------|
If you like country with a boogie beat he's the man to meet
A
E
E|-----------------------------------------------------------------|
B|-2---------------------------------------------------------------|
G|-2---------------------------------------------------1-----------|
D|-2---------------------------------------------------1-----------|
A|--------------------------------------------2-----4--2-----------|
E|-----------------------------------------------------------------|
If you like the sound of shufflin' feet he can't be beat
A
B
B
A
E
E|--------------------------------------------------------------7--|
B|-2-------------------------------4-------------------4--2-----9--|
G|-2-------------------------------4-------------------4--2-----9--|
D|-2-------------------------------4-------------------4--2-----9--|
A|--------------------------------------------------------------7--|
E|-----------------------------------------------------------------|
If you wanna feel real nice, just ask the Rock and Roll doctor's advice
A
B
E
E|-------7---------------------------------------------------------|
B|-2---4-9---------------------------------------------------------|
G|-2---4-9---------------------------------------------------------|
D|-2---4-9---------------------------------------------------------|
A|-------7---------------------------------------------------------|
E|-----------------------------------------------------------------|
G
E
E
D
A
A
E
E|-7---7-7---5---5-5---7-------------------------------------------|
B|-8---9-9---7---5-5---9-------------------------------------------|
G|-7---9-9---7---6-6---9-------------------------------------------|
D|-9---9-9---7---7-7---9-------------------------------------------|
A|-7---7-7---5---7-7---7-------------------------------------------|
E|---------------5-5-----------------------------------------------|
E
D
A
E|-----------------------------------------------------------------|
B|------------------------------3p2--------------------------------|
G|-1----------------------------2-2------1-------------------------|
D|-2----------------------------4p2------2-------------------------|
A|-2-------------------------------------2-------------------------|
E|-----------------------------------------------------------------|
It's just a country town but patients come
E
D
A
E
E|-----------------------------------------------------------------|
B|----------------------------3p2----------------------------------|
G|-1--------------------------2-2----1-----------------------------|
D|-2--------------------------4p2----2-----------------------------|
A|-2---------------------------------2-----------------------------|
E|-----------------------------------------------------------------|
From Mobile to Moline from miles around
D
A
E
B
E
E|---------------7-------------------------------------------------|
B|-3p2-5p4-------9-------------------------------------------------|
G|-2-2-4-4-------9-------------------------------------------------|
D|-4p2-6p4-------9-------------------------------------------------|
A|---------------7-------------------------------------------------|
E|-----------------------------------------------------------------|
Nagodoches to New Orleans
D
A
E
B
E
E|--------------------------7--------------------------------------|
B|----3p2--------5p4--------9--------------------------------------|
G|----2-2--------4-4--------9--------------------------------------|
D|----4p2--------6p4--------9--------------------------------------|
A|--------------------------7--------------------------------------|
E|-----------------------------------------------------------------|
In beatup old cars or in limousines
D
A
D
A
B
E
E|---------------------------------------------------7-------------|
B|-------------3---------2-3----------------2----4---9-------------|
G|-------------2---------2-2----------------2----4---9-------------|
D|-------------4---------2-4----------------2----4---9-------------|
A|---------------------------------------------------7-------------|
E|-----------------------------------------------------------------|
To meet the doctor of soul, he's got his very own thing SOLO
A
A
A
A
A
A
C#
C#
C#
C#
C#
C#
E
E|-----------------4--4--4----4--4--4----7-------------------------|
B|-2-2-2---2-2-2---6--6--6----6--6--6----9-------------------------|
G|-2-2-2---2-2-2---6--6--6----6--6--6----9-------------------------|
D|-2-2-2---2-2-2---6--6--6----6--6--6----9-------------------------|
A|-----------------4--4--4----4--4--4----7-------------------------|
E|-----------------------------------------------------------------|
D
A
E
B
E
E|-------------7---------------------------------------------------|
B|-3p2---5p4---9---------------------------------------------------|
G|-2-2---4-4---9---------------------------------------------------|
D|-4p2---6p4---9---------------------------------------------------|
A|-------------7---------------------------------------------------|
E|-----------------------------------------------------------------|
A
A
A
A
A
A
C#
C#
C#
C#
C#
C#
E
E|-----------------4--4--4----4--4--4----7-------------------------|
B|-2-2-2---2-2-2---6--6--6----6--6--6----9-------------------------|
G|-2-2-2---2-2-2---6--6--6----6--6--6----9-------------------------|
D|-2-2-2---2-2-2---6--6--6----6--6--6----9-------------------------|
A|-----------------4--4--4----4--4--4----7-------------------------|
E|-----------------------------------------------------------------|
D
A
E
B
E
E|-------------7---------------------------------------------------|
B|-3p2---5p4---9---------------------------------------------------|
G|-2-2---4-4---9---------------------------------------------------|
D|-4p2---6p4---9---------------------------------------------------|
A|-------------7---------------------------------------------------|
E|-----------------------------------------------------------------|
A
A
A
A
A
A
C#
C#
C#
C#
C#
C#
A
B
E
E|-----------------4--4--4----4--4--4----5-7-7---------------------|
B|-2-2-2---2-2-2---6--6--6----6--6--6----5-7-9---------------------|
G|-2-2-2---2-2-2---6--6--6----6--6--6----6-8-9---------------------|
D|-2-2-2---2-2-2---6--6--6----6--6--6----7-9-9---------------------|
A|-----------------4--4--4----4--4--4----7-9-7---------------------|
E|---------------------------------------5-7-----------------------|
E
E
E|-7------------------------7--------------------------------------|
B|-9------------------------9--------------------------------------|
G|-9------------------------9--------------------------------------|
D|-9------------------------9--------------------------------------|
A|-7------------------------7--------------------------------------|
E|-----------------------------------------------------------------|
Two degrees in be-bop, a phd in swing
E
A
B
E
A
B
E
E|--------7------------------------------------------7-------7-----|
B|--------9---------------------2------------------4-9-2---4-9-----|
G|--------9---------------------2------------------4-9-2---4-9-----|
D|--------9---------------------2------------------4-9-2---4-9-----|
A|--------7------------------------------------------7-------7-----|
E|-----------------------------------------------------------------|
He's the master of rhythm he's a rock and roll king
E
E
E|-----------------------------------------------------------------|
B|-----------------------------------------------------------------|
G|-1------------------------------------------------------1--------|
D|-2------------------------------------------------------2--------|
A|-2-----------------------------------------------2---4--2--------|
E|-----------------------------------------------------------------|
If you like country with a boogie beat he's the man to meet (he's the man to meet)
E
E
E|-----------------------------------------------------------------|
B|-----------------------------------------------------------------|
G|-1---------------------------------------------------1-----------|
D|-2---------------------------------------------------2-----------|
A|-2------------------------------------------2-4------2-----------|
E|-----------------------------------------------------------------|
If you like the sound of shufflin' feet he can't be beat (I say he can't be beat)
D
A
E
B
E
D
A
E
B
E
D
A
E
B
E|--------------7------------------------7----------------------7--|
B|-3p2----5p4---9--------3p2-5p4---------9---------3-2----5-4---9--|
G|-2-2----4-4---9--------2-2-4-4---------9---------2-2----4-4---9--|
D|-4p2----6p4---9--------4p2-6p4---------9---------4-2----6-4---9--|
A|--------------7------------------------7----------------------7--|
E|-----------------------------------------------------------------|
If you wanna feel real nice, just ask the Rock and Roll doctor's advice
C#
D
A
B
E
E|-4---5---5-7-7---------------------------------------------------|
B|-6---7---5-7-9---------------------------------------------------|
G|-6---7---6-8-9---------------------------------------------------|
D|-6---7---7-9-9---------------------------------------------------|
A|-4---5---7-9-7---------------------------------------------------|
E|---------5-7-----------------------------------------------------|



Roll Um Easy

Tuning: EAEAC#E (Open A)
Capo II
Intro
|---------------------------------------------------------------------------|
|---------------------------------------------------------------------------|
|-7-7---7--------7-7----7----7-7-7---7--------7-7---7-7---------------------|
|-7-7---9P7------7-7----9P7--9-7-7---9P7------7-7---9-7---------------------|
|-7---7-7--------7---7--7----7-7---7-7--------7---7-7-7---------------------|
|------------0----------------------------0---------------------------------|
Oh I am just a vagabond, a drifter on the run
|---------------------------------------------------------------------------|
|---------------------------------------------------------------------------|
|-7-7-7---7-7-7--------------------2/4---0------7-7-------------------------|
|-9-7-7---9-7-7--------------3/5---0-----0------7-7-------------------------|
|-7-7---7-7-7---7------------0-----2/4---0------7---7-----------------------|
|----------------------------3/5--------------------------------------------|
And eloquent profanity, it rolls right off my tongue
|---------------------------------------------------------------------------|
|---------------------------------------------------------------------------|
|------7-7------7-7-7-------7--2------------0-----7-7-----------------------|
|------7-7------9-7-7-------7--2------------0-----7-7-----------------------|
|------7---7----7-7---7-----7--2------------0-----7---7---------------------|
|---------------------------------------------------------------------------|
And I have dined in palaces, drunk wine with kings and queens
|-12\-----------------------------------------------------------------------|
|-0-----7-7-----------------------------------------------------------------|
|-12\---7-7---------7-7---------7-0--------2/4--------0---7-7---------------|
|-0-----7-7---------7-7---------7-0--------0----------0---7-7---------------|
|-------7---7----7--7---7-------7-0--------2/4--------0---7---7-------------|
|---------------------------------------------------------------------------|
But Darlin', oh Darlin', you're the best thing I ever seen
|---------------------------------------------------------------------------|
|---------------------------------------------------------------------------|
|------7-7-----7-----------7------7----2------------0---7-7-----------------|
|------7-7-----7-----------9------7----2------------0---7-7-----------------|
|------7---7-----7---------7------7----2------------0---7---7---------------|
|---------------------------------------------------------------------------|
Won't you roll ma easy, oh slow and easy
|------------12\---7---7----9--7----------12\-----7---7-----9--7------------|
|------------0-----7---7----8--7----------0-------7---7-----8--7------------|
|------------12\---7---7----7--7----------12\-----7---7-----7--7------------|
|------------0---0---0---0--0--0----------0----0----0----0--0--0------------|
|---------------------------------------------------------------------------|
|---------------------------------------------------------------------------|
Take ma independence, with no apprehension no tension
|---------12\----7----7----12--7------------7-----9-------------------------|
|---------0------7----7----0---7------------7-----8--------3----2-----------|
|---------12\----7----7----12--7------------7-----7--------4----2-----------|
|---------0----0---0----0--0---0------------0--0--0--------0----2-----------|
|----------------------------------------------------------4----2-----------|
|---------------------------------------------------------------------------|
You're walking, talking ha-um paradise sweet paradise
|---------------------------------------------------------------------------|
|------------0---------------------------------------------------3-5--------|
|--------0---0---2/-----------7---7----7---7---7-7---7---7---2---2-2---7-7--|
|--------0-----0-0------------7---7----9---7---7-9---7---7---2---------7-7--|
|--------0-0-----2/-----------7-7------7-7---7---7-7---7---7-2-2-----7-----7|
|---------------------------------------------------------------------------|
I've been across this country from Denver to the ocean, and I
|---------------------------------------------------------------------------|
|-8--7----------------------------------------------------------------------|
|-7--7--7------7--7----7-----7--------2/4---0--7--7-------------------------|
|-9--7--7------9--7----7-----7---3/5--0-----0--7--7-------------------------|
|-7--7-----7---7--7-------7--7---0----2/4---0--7-----7----------------------|
|--------------------------------3/5----------------------------------------|
never met girls that could sing so sweet like the angels that live in Houston
|---------------------------------------------------------------------------|
|---------------------------------------------------------------------------|
|-7-7-7-7-7----7--7-------------------------------0-2-0---------7-7---------|
|-9-7-9-7-7----9--7-------------------------------0-2-0---------7-7---------|
|-7-7-7-7---7--7--7-------------------------------0-2-0---------7---7-------|
|---------------------------------------------------------------------------|
Singing roll ma easy so slow and easy
|----------12\---7--9--7----------12\------7----7----9--7-------------------|
|----------0-----7--8--7----------0--------7----7----8--7-------------------|
|----------12\---7--7--7----------12\------7----7----7--7-------------------|
|----------0---0-0--0--0----------0----0------0----0-0--0-------------------|
|---------------------------------------------------------------------------|
|---------------------------------------------------------------------------|
Play the concertina be a temptress and Baby I'm defenseless
|-----------12-----7--------------------------------------------------------|
|-----------0------7--------3---2-------------------------------------------|
|-----------12-----7--------4---2----------0---------7-7--------------------|
|-----------0---0--0--------0---2----------0---------7-7--------------------|
|---------------------------4---2----------0---------7----7-----------------|
|---------------------------------------------------------------------------|
Singin' harmony in unison
|---------12----7--------9-----7--------------------------------------------|
|---------0-----7--------8-----7--------------------------------------------|
|---------12----7--------7-----7---------0---2/4---2--0---------------------|
|---------0---0----0--0-----0------------0---0-----0--0---------------------|
|----------------------------------------0---2/4-0-2--0---------------------|
|---------------------------------------------------------------------------|
sweet harmony gotta hoist the flag and I'll beat your drum.
|---------------------------------------------------------------------------|
|---------------------------------------------------------------------------|
|--------7-7-----7---7-7-------------2----------------------7---------------|
|--------7-7-----7---9-7-------------2----------------------7---------------|
|--------7---7-----7-7-7-------------2----------------------7---------------|
|---------------------------------------------------------------------------|
|---------------------------------------------------------------------------|
|---------------------------------------------------------------------------|
|----7-7-----7----7----7-7-7-----7-----7-7-7---7--------7-7-7---7-----------|
|----7-7-----9p7--7----9-7-7-----9p7---9-7-7---9p7------9-7-7---9p7---------|
|----7----7--7------7--7-7----7--7-----7-7---7-7--------7-7---7-7-----------|
|-0-------------------------------------------------0-----------------------|
LYRICS Oh I am just a vagabond, a drifter on the run And eloquent profanity, it rolls right off my tongue. And I have dined in palaces, drunk wine with kings and queens But Darlin', oh Darlin', you're the best thing I ever seen. Won't you roll ma easy, oh slow and easy. Take ma independence, with no apprehension, no tension. You're walking, talking ha-um paradise sweet paradise. I've been across this country and I never met girls that could sing so sweet like the angels that live in Houston. Singing roll ma easy, so slow and easy Play the concertina be a temptress and Baby I'm defenseless. Singin' harmony in unison sweet harmony gotta hoist the flag and I'll beat your drum.



Sailin' Shoes

Verse 1
Ab7
A7
Ab7
A7
There's a lady in a turban and a cocaine tree
Ab7
A7
E7
A
And she does a dance so rhythmically
Ab7
A7
Ab7
A
She's crying and singing and having a time
Ab7
A
E
A
Gee, that cocaine tree looks fine, you gotta
Chorus
A
E7
Put on your sailing shoes, put on your sailing shoes
Dsus4
D
A
E7
A
Every one will start to cheer when you put on your sailing shoes
Verse 2
Ab7
A7
Ab7
A7
Jedediah, he's got a dime
Ab7
A7
E7
A
Says he catch a more fish every time
Ab7
A7
Ab7
A
Well, I got a line, and you got a pole
Ab7
A
E
A
Well, I'll meet you at the fishing hole, but you gotta
Chorus
A
E7
Put on your sailing shoes, put on your sailing shoes
Dsus4
D
A
E7
A
Every one will start to cheer when you put on your sailing shoes
Verse 3
Ab7
A7
Ab7
A7
Doctor, doctor, I feel so bad
Ab7
A7
E7
A
This is the worst case I've ever had
Ab7
A7
Ab7
A
He said, "Have you this misery for a very long time, cause
Ab7
A
E
A
If you live, I'll lay it on the line. You gotta
Chorus
A
E7
Put on your sailing shoes, put on your sailing shoes
Dsus4
D
A
E7
A
Every one will hip-hooray when you put on your sailing shoes



Two Trains

Intro
Fm/bb
Bb
Bb
Fm/bb
Bb
Eb
F
Bb
Fm/bb
Bb
Bb
Fm/bb
Bb
Eb
F
Bb
Verse
Fm/bb
Bb
Bb
In 1966 I found my love
Fm/bb
Bb
Bb
In 1967 I had all there was
Fm/bb
Bb
Bb
And as my time went by I was satisfied
Fm/bb
Bb
Bb
Until that situation took me by surprise
Chorus
Eb
Bb
F
Eb
Bb
F
Now there's two trains runnin' - on that line
Eb
Bb
F
Bb
Eb/f
Bb
One train's me, and the other's a friend of mine
Eb
Eb
Bb
Eb
Eb
Bb
You know it would be all right, be just fine
Eb
Eb
F
Bb
If the woman took one train, and left the other behind
Instrumental
Fm/bb
Bb
Bb
Fm/bb
Bb
Bb
Verse
Fm/bb
Bb
Bb
Illusion it is just the same
Fm/bb
Bb
Bb
Conclusion I don't know how to p|ay the game
Fm/bb
Bb
Bb
Of what it is or how it's going to be
Fm/bb
Bb
Bb
When one train is my friend and the other train is me
Bridge
Bb
Bb7
Eb/bb
Bb
Bb7
Eb/bb
Bb
Bb7
Eb/bb
Bb
Bb7
Eb/bb
Verse
Fm/bb
Bb
Bb
Easy, I say easy,
Fm/bb
Bb
Bb
I can't push or shove her So I guess I really care
Fm/bb
Bb
Bb
Now I'm not one to hide my love behind a lock and key
Fm/bb
Bb
Bb
But if things keep going the way they are there's no p|ace left for me
Chorus
Eb
Bb
F
Eb
Bb
F
Now there's two trains runnin' - on that line
Eb
Bb
F
Bb
Eb/f
Bb
One train's me, and the other's a friend of mine
Eb
Eb
Bb
Eb
Eb
Bb
You know it would be all right, be just fine
Eb
Eb
F
Bb
If the woman took one train, and left the other behind
Outro
Bb
Two trains, two trains, two trains, two trains



Willin'

G
D
Em
C
G
C
Csus2
C
G
x2
G
I've been worked by the rain
D
Driven by the snow
Em
C
Drunk and dirty, don't you know
G
C
Csus2
C
G
But I'm still willin' And I was out on the road Late at night Seen my pretty Alice in every headlight Alice, Dallas Alice
Chorus
G
C
D
And I been from Tucson to Tucumcari
D
G
Tehachapi to Tonapa
G
C
Driven every kind of rig that's ever been made
C
D
Driven the back roads so I wouldn't get weighed And if you give me
C
/b
/a
G
Weed, whites and wine
G
D
And you show me a sign
D
G
C
Csus2
C
G
I'll be willin' to be movin' Kicked by the wind Robbed by the sleet Had my head stoved in but I'm still on my feet And I'm still in a whole lot of trouble Smuggled some smokes and folks from Mexico Baked by the sun Every time I go to Mexico And I'm still....