Chordproc: Tom Petty

Tom Petty


  1. American Girl
  2. Breakdown
  3. Don't Come Around Here No More
  4. Don't Do Me Like That
  5. Even The Losers
  6. Free Fallin'
  7. Here Comes My Girl
  8. I Need To Know
  9. I Won't Back Down
  10. Into The Great Wide Open
  11. Learning To Fly
  12. Listen To Her Heart
  13. Mary Jane's Last Dance
  14. Refugee
  15. Runnin' Down A Dream
  16. Something In The Air
  17. Stop Draggin' My Heart Around
  18. The Waiting
  19. You Got Lucky

American Girl

Intro
D
E7
G
A
D
E7
G
A7
Verse 1
D
E7
Well she was an American girl
F
A
Raised on promises
D
E7
She couldn't help thinking that there was
G
A
A little more to life somewhere else
D
After all it was a great big world
G
Em
With lots of places to run to
A
And if she had to die tryin' She had one little promise she was gonna keep
Chorus
G
A
Oh yeah, alright
D
Bm
G
Take it easy baby make it last all night
A
D
She was an American girl
Verse 2
Well it was kinda cold that night She stood alone on the balcony Yeh, she could hear the cars roll by, Out on four-fortyone like waves crashing on the beach And for one des'rate moment there He crept back in her memory God it's so painful when Something that's so close is still so far to reach.
Chorus
Outro
D
G7
A
D
G7
A
D
E7
G
D
D
E7
e|-5-2-0-3-2-0-5-2-0-3-2-0-|--%--|-7-4-0-5-4-0-7-4-0-5-4-0-|--%--| b|-------------------------|--%--|-------------------------|--%--|
G
D
e|-10-7-0-9-7-0-10-7-0-9-7-0-|--%--|-12-9-0-10-9-0-12-9-0-10-9-0-|--%--| b|---------------------------|--%--|-----------------------------|--%--|



Breakdown

Am
G
Am
G
Its alright if you love me,
Am
G
Am
G
Its alright if you don't
Am
G
Am
G
I'm not afraid of you runnin away honey,
Am
G
Fmaj7
I got this feeling you won't
Am
G
Am
G
Say there aint no use in pretending,
Am
G
Am
G
Your eyes give you away
Am
G
Am
G
Something inside you is feeling like I do,
Am
G
Fmaj7
We said all there is to say
Fmaj7
G/f
Am/f
G/f
Am
G
F
G
Breakdown go ahead and give it to me
Am
G
F
G
Breakdown take me through the night
Am
G
F
G
Breakdown go ahead give it to me,
Am
G
Fmaj7
Breakdown its alright,
Fmaj7
G/f
Am/f
G/f
Fmaj7
G/f
Am/f
G/f
Am
G
Am
G
It's alright It's alright



Don't Come Around Here No More

F
Bbsus2
Csus2
Bbsus2
x2
Don't come around here no more
F
Bbsus2
Csus2
Bsus2
Whatever you're looking for
F
Bbsus2
Csus2
Bb
Hey don't come around here no more
C
Am
Cause I've given up
C
Gm
Am
Bb
I've given up
C
Am
Yeah I've given up on waiting any longer
C
Gm
Am
Bb
I've given up all this love getting stronger Don't come around here no more Don't come around here no more I don't feel you any more You darken my door Whatever you're looking for Hey don't come around here no more Cause I've given up I've given up Hey I've given up, you tangle my emotions I've given up, honey please, yeah but it's over Don't come around here no more Don't come around here no more Don't come around here no more Don't come around here no more Stop walking down my street Don't come around here no more Who did you expect to meet Don't come around here no more Whatever you're looking for Don't come around here no more



Don't Do Me Like That

Intro
G
F
C
D
G
F
C
D
Fill
F*
E|---------3-----
B|-3--5----------
G|---------------
D|---------------
A|---------------
E|---------------
G
I was talkin' with a friend of mine
F
Said a woman had hurt his pride
C
Told him that she loved him so
D
And turned around and let him go
G
Then he said you better watch your step
F
Or you're gonna get hurt yourself
C
D
Someone's gonna tell you lies cut you down to size
G
Don't do me like that
F*
Don't do me like that
Em
What if I loved you baby?
C
D
Don't do me like that
G
Don't do me like that
F*
Don't do me like that
Em
Someday I might need you baby
C
D
Don't do me like that Listen honey can't you see Baby it would bury me If you were in the public eye Givin' someone else a try Well you know you better watch your step Or you're gonna get hurt yourself Someone's gonna tell you lies cut you down to size Don't do me like that Don't do me like that What if I loved you baby? Don't do me like that Don't do me like that Don't do me like that What if I need you honey? Don't do me like that
G7
C
'Cause somewhere deep down inside someone is saying
G7
C
Love doesn't last that long
G7
C
I've had this feelin' inside night out and day in
Cm
D
And I can't take it no more Listen honey can't you see Baby it would bury me If you were in the public eye Givin' someone else a try And you know you better watch your step Or you're gonna get hurt yourself Someone's gonna tell you lies cut you down to size Don't do me like that Don't do me like that What if I loved you baby? Don't do me like that Don't do me like that Don't do me like that I just might need you honey? Don't do me like that
G
Don't do me like that
F*
Don't do me like that



Even The Losers

A
D
A
G
A
Well it was nearly summer, sat on your roof
D
A
G
Yeah we smoked cigarettes and we stared at the moon
D
A
G
D
And I showed you stars you never could see
D
(
A
)
C
Babe, it couldnt have been that easy to forget about me Baby time meant nothin anything seemed real Yeah you could kiss like fire and you made me feel Like every word you said was meant to be Babe, it couldnt have been that easy to forget about me
D
A
G
Baby even the losers
D
A
G
Get lucky sometimes
D
A
G
Even the losers
G
Keep a little bit of pride
A
They get lucky sometimes
Solo over verse chords
A
Asus4
Two cars parked on the overpass
A
Asus4
Rocks hit the water like broken glass
A
Asus4
Should have known right then it was too good to last
A
Asus4
G
G
Its such a drag when you live in the past
Repeat chorus to fade



Free Fallin'

Capo I
E 022100
Asus2 002200
Bsus4/addE 224400
E
Asus2
|
Asus2
E
Bsus4/addE
| %
Lyrics
She's a good girl, loves her mama Loves Jesus and America too She's a good girl, crazy 'bout Elvis Loves horses and her boyfriend too It's a long day livin' in Reseda There's a free-way runnin' through the yard And I'm a bad boy, cause I don't even miss her I'm a bad boy for breakin' her heart
Chorus
And I'm free, I'm free fallin' All the vampires walkin' through the valley Move west down Ventura Boulevard And all the bad boys are standing in the shadows All the good girls are home with broken hearts
Repeat Chorus
Do this little thing:
E -4----4-2---0-2-0--
right before the backing vocals go "Free fallin, yeah I'm free fallin" twice
after the chorus right before the next verse.
I wanna glide down over Mulholland I wanna write her name in the sky I wanna free fall out into nothin' Gonna leave this world for awhile
Chorus
E5
A5
B5
A5



Here Comes My Girl

The main progression for the INTRO and VERSE of the song goes like this
Use a 1st finger barre at 2nd fret, move (not slide) it up to 4th fret.
When you play it with the song, you'll get the feel of it:
A
B/a
Amaj7
B/a
E|-------------------|--------------|-------------------|-------------------
B|-2-----------------|-4-----4--5--7|-5-----------------|-4-----------------
G|-2-----------------|-4-----4------|-6-----------------|-4-----------------
D|-2-----------------|-4-----4------|-7-----------------|-4-----------------
A|-0--0--0-0-0--0-0-0|-0--0--0------|-0--0--0-0-0--0-0-0|-0--0--0-0-0--0-0-0
E|-------------------|--------------|-------------------|-------------------
Verse 1
A
You know, sometimes, I don't know why
B/a
Amaj7
B/a
But this whole town just seems so hopeless
A
B/a
I ain't really sure but it seems I remember the good times
Amaj7
B/a
Were just a little bit more in focus
A
B/a
But when she puts her arms around me
Amaj7
B/a
I can somehow rise above it
A
B/a
Yeah man when I got that little girl standing right by my side
Amaj7
B/a
You know I can tell the whole wide world to shove it
Chorus
E
Hey here comes my girl
A
E
A
Here comes my girl
F#m
B
Yeah and she looks so right She is all I need tonight
Verse 2
Every now and then I get down to the end of a day I'll just have to stop, ask myself, "What've I done?" It just seems so useless to have to work so hard And nothin' ever really seem to come from it And then she looks me in the eye, says, "We gonna last forever," And man, you know I can't begin to doubt it No, because this feels so good and so free and so right I know we ain't never goin' change our minds about it
Chorus and Break
Verse 3
Yeah every time it seems there ain't nothin' left no more I find myself havin' to reach out and grab hold of somethin' Yeah, I just catch myself wanderin', waitin', worryin' About some silly little things that don't add up to nothin' And then she looks me in the eye, says, "We gonna last forever," And man, you know I can't begin to doubt it No, because this feels so good and so free and so right I know we ain't never goin' change our minds about it
Chorus and End
The ending is just the first and last measures of the Verse: A to B/A
Break
This break repeats three times, and the fourth time just
continues the same vamp on the E and A strings, to Verse 3
F#5
E|-------------------------------------0-|
B|------------------------0h2p0--------2-|
G|-------------------------------3-----3-|
D|----------------------------------4--4-|
A|-4--4--4-4-4-4-4--4--4---------------4-|
E|-2--2--2-2-2-2-2--2--2---------------2-|
The E in the chorus can be played with an E9 in the middle.



I Need To Know

Intro
E5
E------------------------------------|-----------------------------------|
B------------------------------------|-----------------------------------|
G-9----------------------------------|------------9--7--9----------------|
D-9----------------------------------|------------9--7--9----------------|
A-7----------------------------------|------------7--7--7----------------|
e------------------------------------|-----------------------------------|
E------------------------------------|-----------------------------------|
B------------------------------------|---------------------8--7----------|
G--------9--7--9---------------------|---------------------7--7----------|
D--------9--7--9---------------------|---------------------7--7----------|
A--------7--7--9---------------------|---------------------5--5----------|
e------------------------------------|-----------------------------------|
E------------------------------------|-----------------------------------|
B------------------------------------|-----------------------------------|
G---9---9--7--9----------------------|-----------9--7--9-----------------|
D---9---9--7--9----------------------|-----------9--7--9-----------------|
A---7---7--7--7----------------------|-----------7--7--7-----------------|
e------------------------------------|-----------------------------------|
E------------------------------------|-----------------------------------|
B------------------------------------|---------------------8--7----------|
G--------9--7--9---------------------|---------------------7--7----------|
D--------9--7--9---------------------|---------------------7--7----------|
A--------7--7--9---------------------|---------------------5--5----------|
e------------------------------------|-----------------------------------|
Verse
D5
E------------------------------------|-----------------------------------|
B------------------------------------|-----------------------------------|
G-7----------------------------------|-------------------------7---------|
D-7----------------------------------|---------------7-------------------|
A-5----------------------------------|----5------------------------------|
e------------------------------------|-----------------------------------|
E------------------------------------|----------8---7--------------------|
B-9------9--7--9---------------------|----------7---7--------------------|
G-9------9--7--9---------------------|----------7---7--------------------|
D-7------7--7--7---------------------|----------5---5--------------------|
A------------------------------------|-----------------------------------|
e------------------------------------|-----------------------------------|
Chorus
E5
D5
C5
D5
E5
D5
C5
D5
C5
D5
and then..
E------------------------------------|-----------------------------------|
B------------------------------------|---------------------8--7----------|
G---9----9--7--9---------------------|-----------5---------7--7----------|
D---9----9--7--9---------------------|-----------5---------7--7----------|
A---7----7--7--9---------------------|-----------7---------5--5----------|
e------------------------------------|-----------------------------------|



I Won't Back Down

C#m
B
E
Well I won't back down
C#m
B
E
No I won't back down
C#m
B
A
You can stand me up at the gates of hell
C#m
B
E
But I won't back down Gonna stand my ground Won't be turned around And I'll keep this world from draggin' me down Gonna stand my ground And I won't back down
A
E
A
E
B
Hey baby
E
A
E
B
E
there ain't no easy way out
A
E
B
C#m
B
E
Hey I will stand my ground
C#m
B
E
And I won't back down Well I know what's right I got just one life In a world that keep on pushin' me around But I'll stand my ground and I won't back down Hey baby There ain't no easy way out Hey I will stand my ground and I won't back down And I won't back down No I won't back down



Into The Great Wide Open

The intro and first few bars of the verse
Em
Em?
Em7
Em6
e|---0-----------------|
B|---0-----------------|
G|---0-----------------|
D|---2----1---0--------|
A|---2----2---2---4----|
E|---0----0---0---0----|
Intro Solo
e|--/12~------------------|
B|--------12/10----10/12~-|
G|--------------12--------|
D|------------------------|
A|------------------------|
E|------------------------|
Em
Em?
Em7
Em6
Eddie waited till he finished high school
Em
Em?
Em7
Em6
He went to Hollywood, got a tattoo
Am
Am/g
Am/f#
Am/g
He met a girl out there with a tattoo too
G
F
C
G
C
G
The future was wide open.
Em
Em?
Em7
Em6
They moved into a place they both could afford
Em
Em?
Em7
Em6
He found a nightclub he could work at the door
Am
Am/g
Am/f#
Am/g
She had a guitar and she taught him some chords
G
F
C
G
C
G
G
C
G
D
The sky was the limit.
G
C
Dsus4
G
Em
D
Am
Into the great wide open, under them skies of blue
G
C
Dsus4
G
F
Em
A
Out in the great wide open, a rebel without a clue.
Pre Verse 2 Riff
e|---------12-------------------12-----------------0----------------|
B|------12----15b----15b12-15b------12---5------3-------------------|
G|--14b-------------------------------------2/4-------4/2-0-2--0----|
D|---------------------------------------------------------------2--|
A|------------------------------------------------------------------|
E|------------------------------------------------------------------|
The papers said Ed always played from the heart He got an agent and a roadie named Bart They made a record and it went in the charts The sky was the limit. His leather jacket had chains that would jingle They both met movie stars, partied and mingled. Their A&R man said "I don't hear a single." The future was wide open. Into the great wide open, under them skies of blue Out in the great wide open, a rebel without a clue. Into the great wide open, under them skies of blue Out in the great wide open, a rebel without a clue.
G
C
G
G
C
G



Learning To Fly

Guitar 1
F
C
Am
G
Guitar 2
|-----------------------------------------------------------------|
|------1---1-----1---1--0--1-0-1----1--1---1----1-----1-0--1-0-1--|
|-2-0----0---0-0---0-------------2-0--0-0-0---0----0--------------|
|-----------------------------------------------------------------|
|-----------------------------------------------------------------|
|-----------------------------------------------------------------|



Listen To Her Heart

Intro
A
A9
Verse 1
A
G
A
A9
She's gonna ..
G
A
It's gonna ..
E
She might ...
A
A9
But she ..
Bridge.
G
A
And you ..
Fill
Asus4
A
E|-10-9-----
B|-----10---
G|-------9--
D|-X--------
A|-X--------
E|-X--------
G
A
E
Then you ...
Solo over verse chords
E|-0--0--0--0--0--0--0--0--0--0--0--0--0--0--0--0--0--0--0--0--0--0--0--|
B|-15-15-15-14-14-14-14-12-12-10-12-14-14-15-15-15-14-14-14-12-12-10-10-|
G|-x--------------------------------------------------------------------|
D|-x--------------------------------------------------------------------|
A|-x--------------------------------------------------------------------|
E|-x--------------------------------------------------------------------|
E|-0--0--0--0--0--0--0--0--0--0--0--0--0--0--0--0--0--0--0--0--0---|
B|-15-15-15-14-14-14-14-12-12-10-12-14-14-14-15-14-12-12-10-12-10--|
G|-x---------------------------------------------------------------|
D|-x---------------------------------------------------------------|
A|-x---------------------------------------------------------------|
E|-x---------------------------------------------------------------|
Ref
Outro
A
Asus4
A
A9
A



Mary Jane's Last Dance

Intro
Am
G
D
Am
Am
G
She grew up in an Indiana town
D
Am
Had a good lookin' mama who never was around
Am
G
But she grew up tall and she grew up right
D
Am
With them Indiana boys on an Indiana night Well she moved down here at the age of 18 She blew the boys away, it was more than they'd seen I was introduced and we both started groovin' She said, "I dig you baby but I got to keep movin'" ...on, keep movin' on
Chorus
D
Last dance with Mary Jane
A
One more time to kill the pain
D
I feel summer creepin' in and I'm
A
Tired of this town again Well I don't know but I've been told You never slow down, you never grow old I'm tired of screwing up, I'm tired of bein' down I'm tire of myself, I'm tired of this town Oh my my, oh hell yes Honey put on that party dress Buy me a drink, sing me a song, Take me as I come 'cause I can't stay long
Repeat chorus:
There's pidgeons down in Market Square She's standin' in her underwear Lookin' down from a hotel room Nightfall will be comin' soon Oh my my, oh hell yes You've got to put on that party dress It was too cold to cry when I woke up alone I hit the last number, I walked to the road



Refugee

F#m
A
E
F#m
A
We got something we both know it
E
F#m
A
E
We don't talk too much about it
F#m
A
Aint no real big secret all the same
E
F#m
A
E
Somehow we get around it
E
D
Listen, it don't really matter to me baby
B
You believe what you want to believe. You see you
F#m
A
E
Don't have to live like a refugee
F#m
A
E
(Don't have to live like a refugee) Somewhere, somehow Somebody must have kicked you around some Tell me why you wanna lay there Revel in your abandon Honey, it don't make no difference to me Baby, everybody's had to fight to be free You see, you don't have to live like a refugee No baby, you don't have to live like a refugee
E
Baby we aint the first
A
I'm sure a lot of other lovers been burned
D
Right now it seems real to you, but it's
E
One of those things you gotta feel to be true Somewhere, somehow Somebody must have kicked you around some Who knows, maybe you were kidnapped Tied-up, taken away and held for ransom Honey, it don't really matter to me Baby, everybody's had to fight to be free You see, you don't have to live like a refugee No, you don't have to live like a refugee Baby, you don't have to live like a refugee



Runnin' Down A Dream

Signature Riff: (low E string with power E chord)
E|----------------------------------|
G|----------------------------------|
B|----------------------------------|
D|----------------------------------|
A|----------------------------------|
E|--0--7--0--6--0--5--0--3--0-------|
Verse 1
E
It was a beautiful day, the sun beat down
D
E
I had the radio on, I was drivin' The trees went back, me and Del were singin'
D
E
Little Runaway, I was so blind
Chorus
D
G
E
Yeah, Runnin' down a dream
E
G
A
Never would come to me
D
G
E
Workin' on a mystery
E
G
A
Goin' wherever it leads
D
G
E
Runnin' down a dream
Verse 2
E
I felt so good, like anything was possible
D
E
Hit cruise control, and rub my eyes Last three days, the rain was unstoppable
D
E
(It) was always cold, no sunshine
Repeat Chorus
Break
C
(riff)
D
(riff)
E
(riff)
x2
Verse 3
E
I rolled on, the sky grew dark
D
E
I put the pedal down, to make some time There's something good, waiting down this road
D
E
I'm pickin' up, whatever is mine
Repeat chorus x2, then Break part, and add SOLO!



Something In The Air

Tuning: Open E, EBEG#BE.
E 000000
F#m7add4 220100
F# 222222
G#m7add4 442322
G# 444444
A#m7add4 664544
E
| | |
F#m7add4
| | |
E
| | |
F#m7add4
| | |
E
Call out the instigators
F#m7add4
Because theres something in the air
E
Weve got to get together sooner or later
F#m7add4
Because the revolutions here, and you know its...
E |-----------------------------------|
B |-----------------------------------|
G#|------0-------0-------0-------0----|
E |----0-------0-------0-------0------|
B |--5-----5-3-----3-2-----2-0-----0--|
E |-----------------------------------|
...right
E |-----------------------------------|
B |-----------------------------------|
G#|------0-------0-------0-------0----|
E |----0-------0-------0-------0------|
B |--5-----5-3-----3-2-----2-0-----0--|
E |-----------------------------------|
And you know that its right
F#m7add4
We have got to get it together We have got to get it together...
E |-----------------------------------|
B |-----------------------------------|
G#|------0-------0-------0-------0----|
E |----0-------0-------0-------0------|
B |--5-----5-3-----3-2-----2-0-----0--|
E |-----------------------------------|
...Now
E |-----------------------------------|
B |-----------------------------------|
G#|------0-------0-------0-------0----|
E |----0-------0-------0-------0------|
B |--5-----5-3-----3-2-----2-0-----0--|
E |-----------------------------------|
F#
| | |
G#m7add4
| | |
F#
| | |
G#m7add4
| | |
F#
Lock up the streets and houses
G#m7add4
Because theres something in the air
F#
Weve got to get together sooner or later
G#m7add4
Because the revolutions here, and you know its...
E |-----------------------------------|
B |------2-------2--------------------|
G#|----2-------2---------2-------2----|
E |--2-----2-----------2-------2------|
B |----------5-----5-4-----4-2-----2--|
E |-----------------------------------|
...right
E |-----------------------------------|
B |------2-------2--------------------|
G#|----2-------2---------2-------2----|
E |--2-----2-----------2-------2------|
B |----------5-----5-4-----4-2-----2--|
E |-----------------------------------|
And you know that its right
G#m7add4
We have got to get it together We have got to get it together... Instrumental Section.
F#5
F#add6
F#5
F#add6
F#5
F#add6
F#5
F#add6
E |-------------------|-------------------|
B |-------------------|-------------------|
G#|-------------------|-------------------|
E |--2-2-2-2-2-2-2-2--|--2-2-2-2-2-2-2-2--|
B |--2-2-4-4-2-2-4-4--|--2-2-4-4-2-2-4-4--|
E |--2-2-2-2-2-2-2-2--|--2-2-2-2-2-2-2-2--|
...Now
E5
Eadd6
E5
Eadd6
E5
Eadd6
E5
Eadd6
F5
Fadd6
F5
Fadd6
F5
Eadd6
F5
Fadd6
G5
Gadd6
G5
Gadd6
G5
Gadd6
G5
Gadd6
C5
| | |
F5
| | |
C5
| | |
F5
| | |
F5
| | |
F5
| | |
C5
| | |
G5
| | |
C5
| | |
F5
| | |
C5
| | |
F5
| | |
C5
| | |
G#5
G5
G#5
G5
C5
| | |
F5
| | |
G#
| | |
A#m7add4
| | |
G#
| | |
A#m7add4
| | |
G#
Hand out the arms and ammo
A#m7add4
Were going to blast our way through here
G#
Weve got to get together sooner or later
A#m7add4
Because the revolutions here, and you know its...
E |-----------------------------------|
B |------4-------4--------------------|
G#|----4-------4---------4-------4----|
E |--4-----4-----------4-------4------|
B |----------7-----7-6-----6-4-----4--|
E |-----------------------------------|
...right
E |-----------------------------------|
B |------4-------4--------------------|
G#|----4-------4---------4-------4----|
E |--4-----4-----------4-------4------|
B |----------7-----7-6-----6-4-----4--|
E |-----------------------------------|
And you know that its right
A#m7add4
We have got to get it together We have got to get it together
G#



Stop Draggin' My Heart Around

Intro
|
A
Asus4
A
Asus2
|
Asus4
A
Asus2
A
|
breaks
Cadd9
G/b
Cadd9
|
Em
|
G
A
|
Em
|
G
A
| |
Em
|
G
A
|
Em
|
G
A
|
Verse
Em
G
A
Baby, you come knocking on my front door
Em
G
A
Same old line you used to use before
Em
G
A
And I said yeah, well, what am I supposed to do?
Em
G
A
I didn't know what I was getting into
Pre-Chorus
C
D
So you've had a little trouble in town
C
D
Now you're keeping some demons down
Chorus
C
Stop draggin' my
D
Stop draggin' my
Cadd9
G/b
Cadd9
Stop draggin' my heart around
Interlude
|
Em
|
G
A
|
Em
|
G
A
|
Verse
Em
G
A
It's hard to think about what you've wanted
Em
G
A
It's hard to think about what you'd lost
Em
G
A
This doesn't have to be the big get even
Em
G
A
This doesn't have to be anything at all
Verse
Em
G
A
I know you really want to tell me good-bye
Em
G
A
I know you really want to be your own girl
Pre-Chorus
C
D
Baby, you could never look me in the eye
C
D
Yeah, you buckle with the weight of the world
Chorus
C
Stop draggin' my
D
Stop draggin' my
Cadd9
G/b
Cadd9
Stop draggin' my heart around
Instrumental Break
|
Em
|
G
A
| |
D
Dsus4
D
|
Cadd9
G/b
|
D
Dsus4
D
|
Cadd9
G/b
| |
D
Dsus4
D
|
Cadd9
G/b
| |
A
Asus2
Asus4
A
|
Asus2
| |
Cadd9
G/b
|
Cadd9
| |
Em
|
G
A
|
Em
|
G
A
|
Verse
Em
G
A
People running 'round loose in the world
Em
G
A
Ain't got nothing better to do
Em
G
A
Make a meal of some bright eyed kid
Em
G
A
You need someone looking after you
Verse
Em
G
A
I know you really want to tell me good-bye
Em
G
A
I know you really want to be your own girl
Pre-Chorus
C
D
Baby, you could never look me in the eye
C
D
Yeah, you buckle with the weight of the world
Chorus
C
Stop draggin' my
D
Stop draggin' my
Cadd9
G/b
Cadd9
Stop draggin' my heart around
Interlude
|
Em
|
G
A
|
Em
|
G
A
|
Outro
Em
G
A
|
Em
|
G
A
| Stop draggin' my heart around
Em
G
A
|
Em
|
G
A
| Stop draggin' my heart around



The Waiting

A6/f# 222222
Intro
Note: before hitting the G chord play the F# note on the low E string.
Walk the bass notes down and strum!
G
G/f#
Asus4
D
G
G/f#
Asus4
G
G/f#
Asus4
D
G
G/f#
Asus4
A
Verse 1
A
G
D
Oh, baby don't it feel like heaven right now
A
G
D
Don't it feel like something from a dream
A
G
D
Yeah, I've never nothing quite like this
Bm
Don't it feel like tonight might never be again
G
Baby, we know better than to try and pretend
A
Honey, no one could've ever told me about this I said yeh, yeh, yeah yeah yeah yeah
Chorus
G
G/f#
A
D
The waiting is the hardest part
G
G/f#
A
Every day you see one more card
G
G/f#
A
D
You take it on faith, you take it to the heart
G
G/f#
A
D
G
G/f#
A
D
The waiting is the hardest part
Verse 2
Well yeah I might've chased a couple women around All it ever got me was down Yeah, then there were those that made me feel good But never as good as I feel right now Baby you're the only one that's ever known how To make me wanna live like I wanna live now I said yeh, yeh, yeh yeh yeh yeh
Chorus
The waiting is the hardest part Every day you see one more yard You take it on faith, you take it to the heart The waiting is the hardest part
BRIDGE
Bm
A6/f#
Oh don't let 'em kill you babe
Bm
A6/f#
Don't let 'em get to you
Bm
A6/f#
Don't let 'em kill you babe
Bm
A6/f#
Don't let 'em get to you
A
I'll be your bleedin' heart
D
I'll be your cryin' fool
G
Don't let this go too far
F#
Don't let it get to you
Solo
A
G
D
A
G
D
A
G
D
Bm
G
A
Yeh, yeh, yeh yeh yeh yeh The waiting is the hardest part Every day you see one more yard You take it on faith, you take it to the heart The waiting is the hardest part The waiting is the hardest part



You Got Lucky

Intro
Am
Dm
G
E -5--5--5--5--5--5--5--5-|-5--5--5--5--3--3--3--3-|
B -5--5--5--5--5--5--5--5-|-6--6--6--6--3--3--3--3-|
G -5--5--5--5--5--5--5--5-|-7--7--7--7--4--4--4--4-|
D -7--7--7--7--7--7--7--7-|-------------5--5--5--5-|
A ------------------------|------------------------|
E ------------------------|------------------------|
Intro chords
You better watch what you say You better watch what you do to me Don~t get carried away Girl, if you can do better than me
Am
Go
F
Yeah, go But remember
C
Am
Good love is hard to find
C
Am
Good love is hard to find
F
You got lucky, babe
G
You got lucky, babe (Intro chords) When I found you
Intro chords
You put an end on my tear And then you turn your eyes away If you don~t feel complete If I don~t take you all of the way
Am
Then go,
F
Yeah, go, But remember
C
Am
Good love is hard to find
C
Am
Good love is hard to find
F
You got lucky, babe
G
You got lucky, babe When I found you
Solo over the intro chords
Am
Dm
G
Am
Dm
G
E|--------------------------------------|---------------------------------|
B|--------------------------------------|---------------------------------|
G|--------------------------------------|---------------------------------|
D|------5--7----------------------------|------5--7-----------------------|
A|-7~---------7~---5--3--5~---3-2--3--5-|-7~---------7~---5--3--2--0------|
E|--------------------------------------|----------------------------3~~--|
The (~) means to sustain the note
The (~~) means to sustain and keep it warply tremoloed.
Am
Yeah go,
F
Just, go, But remember
C
Am
Good love is hard to find
C
Am
Good love is hard to find
F
You got lucky, babe
G
You got lucky, babe When I found you
Final solo
Am
Dm
G
Am
Dm
G
E|------------------------------------|-----------------------------|
B|------------------------------------|-----------------------------|
G|------------------------------------|----------------5--7--7b-----|
D|------5--7--------------------------|------5--7-------------------|
A|-7~---------7~---5--3--5~-----------|-7~---------7~---------------|
E|------------------------------------|-----------------------------|